ISO-10303-21;
HEADER;
/* Generated by software containing ST-Developer
 * from STEP Tools, Inc. (www.steptools.com) 
 */

FILE_DESCRIPTION(
/* description */ (''),
/* implementation_level */ '2;1');

FILE_NAME(
/* name */ 'DIE - CNC Flatter v2.step',
/* time_stamp */ '2024-08-01T08:07:10-07:00',
/* author */ (''),
/* organization */ (''),
/* preprocessor_version */ 'ST-DEVELOPER v20',
/* originating_system */ 'Autodesk Translation Framework v13.14.0.145',

/* authorisation */ '');

FILE_SCHEMA (('AUTOMOTIVE_DESIGN { 1 0 10303 214 3 1 1 }'));
ENDSEC;

DATA;
#10=MECHANICAL_DESIGN_GEOMETRIC_PRESENTATION_REPRESENTATION('',(#13),#327);
#11=SHAPE_REPRESENTATION_RELATIONSHIP('SRR','None',#334,#12);
#12=ADVANCED_BREP_SHAPE_REPRESENTATION('',(#14),#326);
#13=STYLED_ITEM('',(#343),#14);
#14=MANIFOLD_SOLID_BREP('Body1',#167);
#15=CYLINDRICAL_SURFACE('',#191,3.1);
#16=CYLINDRICAL_SURFACE('',#192,3.1);
#17=FACE_BOUND('',#58,.T.);
#18=FACE_BOUND('',#59,.T.);
#19=FACE_BOUND('',#62,.T.);
#20=FACE_BOUND('',#63,.T.);
#21=LINE('',#297,#31);
#22=LINE('',#299,#32);
#23=LINE('',#300,#33);
#24=LINE('',#307,#34);
#25=LINE('',#308,#35);
#26=LINE('',#311,#36);
#27=LINE('',#312,#37);
#28=LINE('',#318,#38);
#29=LINE('',#320,#39);
#30=LINE('',#322,#40);
#31=VECTOR('',#205,10.);
#32=VECTOR('',#206,10.);
#33=VECTOR('',#207,10.);
#34=VECTOR('',#214,10.);
#35=VECTOR('',#215,10.);
#36=VECTOR('',#218,10.);
#37=VECTOR('',#219,10.);
#38=VECTOR('',#226,3.1);
#39=VECTOR('',#229,3.1);
#40=VECTOR('',#232,10.);
#41=PLANE('',#184);
#42=PLANE('',#187);
#43=PLANE('',#188);
#44=PLANE('',#193);
#45=PLANE('',#194);
#46=FACE_OUTER_BOUND('',#55,.T.);
#47=FACE_OUTER_BOUND('',#56,.T.);
#48=FACE_OUTER_BOUND('',#57,.T.);
#49=FACE_OUTER_BOUND('',#60,.T.);
#50=FACE_OUTER_BOUND('',#61,.T.);
#51=FACE_OUTER_BOUND('',#64,.T.);
#52=FACE_OUTER_BOUND('',#65,.T.);
#53=FACE_OUTER_BOUND('',#66,.T.);
#54=FACE_OUTER_BOUND('',#67,.T.);
#55=EDGE_LOOP('',(#114,#115,#116,#117));
#56=EDGE_LOOP('',(#118,#119,#120,#121));
#57=EDGE_LOOP('',(#122,#123,#124,#125));
#58=EDGE_LOOP('',(#126));
#59=EDGE_LOOP('',(#127));
#60=EDGE_LOOP('',(#128,#129,#130,#131,#132));
#61=EDGE_LOOP('',(#133,#134,#135,#136));
#62=EDGE_LOOP('',(#137));
#63=EDGE_LOOP('',(#138));
#64=EDGE_LOOP('',(#139,#140,#141,#142));
#65=EDGE_LOOP('',(#143,#144,#145,#146));
#66=EDGE_LOOP('',(#147,#148,#149,#150,#151));
#67=EDGE_LOOP('',(#152,#153,#154,#155));
#68=CIRCLE('',#181,100.);
#69=CIRCLE('',#182,96.8955043999833);
#70=CIRCLE('',#183,96.8954882136787);
#71=CIRCLE('',#185,3.1);
#72=CIRCLE('',#186,3.1);
#73=CIRCLE('',#189,3.1);
#74=CIRCLE('',#190,3.1);
#75=B_SPLINE_CURVE_WITH_KNOTS('',3,(#247,#248,#249,#250,#251,#252,#253,
#254),.UNSPECIFIED.,.F.,.F.,(4,2,2,4),(33.4406417292122,34.3372492599781,
35.233869326588,35.280175824701),.UNSPECIFIED.);
#76=B_SPLINE_CURVE_WITH_KNOTS('',3,(#258,#259,#260,#261,#262,#263,#264,
#265),.UNSPECIFIED.,.F.,.F.,(4,2,2,4),(9.30732984292395,9.35363631747322,
10.250256395006,11.1468639366946),.UNSPECIFIED.);
#77=B_SPLINE_CURVE_WITH_KNOTS('',3,(#277,#278,#279,#280,#281,#282,#283,
#284),.UNSPECIFIED.,.F.,.F.,(4,2,2,4),(31.6010774171621,31.6473890601481,
32.5440091267581,33.4406291933681),.UNSPECIFIED.);
#78=B_SPLINE_CURVE_WITH_KNOTS('',3,(#287,#288,#289,#290,#291,#292,#293,
#294),.UNSPECIFIED.,.F.,.F.,(4,2,2,4),(11.1468764725388,12.0434965500715,
12.9401166276043,12.9864282470267),.UNSPECIFIED.);
#79=VERTEX_POINT('',#245);
#80=VERTEX_POINT('',#246);
#81=VERTEX_POINT('',#255);
#82=VERTEX_POINT('',#257);
#83=VERTEX_POINT('',#276);
#84=VERTEX_POINT('',#285);
#85=VERTEX_POINT('',#296);
#86=VERTEX_POINT('',#298);
#87=VERTEX_POINT('',#301);
#88=VERTEX_POINT('',#303);
#89=VERTEX_POINT('',#306);
#90=VERTEX_POINT('',#310);
#91=VERTEX_POINT('',#313);
#92=VERTEX_POINT('',#315);
#93=EDGE_CURVE('',#79,#80,#75,.T.);
#94=EDGE_CURVE('',#81,#79,#68,.T.);
#95=EDGE_CURVE('',#82,#81,#76,.T.);
#96=EDGE_CURVE('',#80,#82,#69,.T.);
#97=EDGE_CURVE('',#83,#79,#77,.T.);
#98=EDGE_CURVE('',#84,#83,#70,.T.);
#99=EDGE_CURVE('',#81,#84,#78,.T.);
#100=EDGE_CURVE('',#82,#85,#21,.T.);
#101=EDGE_CURVE('',#85,#86,#22,.T.);
#102=EDGE_CURVE('',#86,#80,#23,.T.);
#103=EDGE_CURVE('',#87,#87,#71,.T.);
#104=EDGE_CURVE('',#88,#88,#72,.T.);
#105=EDGE_CURVE('',#89,#84,#24,.T.);
#106=EDGE_CURVE('',#89,#85,#25,.T.);
#107=EDGE_CURVE('',#83,#90,#26,.T.);
#108=EDGE_CURVE('',#90,#89,#27,.T.);
#109=EDGE_CURVE('',#91,#91,#73,.T.);
#110=EDGE_CURVE('',#92,#92,#74,.T.);
#111=EDGE_CURVE('',#87,#92,#28,.T.);
#112=EDGE_CURVE('',#88,#91,#29,.T.);
#113=EDGE_CURVE('',#90,#86,#30,.T.);
#114=ORIENTED_EDGE('',*,*,#93,.F.);
#115=ORIENTED_EDGE('',*,*,#94,.F.);
#116=ORIENTED_EDGE('',*,*,#95,.F.);
#117=ORIENTED_EDGE('',*,*,#96,.F.);
#118=ORIENTED_EDGE('',*,*,#97,.F.);
#119=ORIENTED_EDGE('',*,*,#98,.F.);
#120=ORIENTED_EDGE('',*,*,#99,.F.);
#121=ORIENTED_EDGE('',*,*,#94,.T.);
#122=ORIENTED_EDGE('',*,*,#96,.T.);
#123=ORIENTED_EDGE('',*,*,#100,.T.);
#124=ORIENTED_EDGE('',*,*,#101,.T.);
#125=ORIENTED_EDGE('',*,*,#102,.T.);
#126=ORIENTED_EDGE('',*,*,#103,.T.);
#127=ORIENTED_EDGE('',*,*,#104,.T.);
#128=ORIENTED_EDGE('',*,*,#99,.T.);
#129=ORIENTED_EDGE('',*,*,#105,.F.);
#130=ORIENTED_EDGE('',*,*,#106,.T.);
#131=ORIENTED_EDGE('',*,*,#100,.F.);
#132=ORIENTED_EDGE('',*,*,#95,.T.);
#133=ORIENTED_EDGE('',*,*,#98,.T.);
#134=ORIENTED_EDGE('',*,*,#107,.T.);
#135=ORIENTED_EDGE('',*,*,#108,.T.);
#136=ORIENTED_EDGE('',*,*,#105,.T.);
#137=ORIENTED_EDGE('',*,*,#109,.T.);
#138=ORIENTED_EDGE('',*,*,#110,.T.);
#139=ORIENTED_EDGE('',*,*,#103,.F.);
#140=ORIENTED_EDGE('',*,*,#111,.T.);
#141=ORIENTED_EDGE('',*,*,#110,.F.);
#142=ORIENTED_EDGE('',*,*,#111,.F.);
#143=ORIENTED_EDGE('',*,*,#104,.F.);
#144=ORIENTED_EDGE('',*,*,#112,.T.);
#145=ORIENTED_EDGE('',*,*,#109,.F.);
#146=ORIENTED_EDGE('',*,*,#112,.F.);
#147=ORIENTED_EDGE('',*,*,#93,.T.);
#148=ORIENTED_EDGE('',*,*,#102,.F.);
#149=ORIENTED_EDGE('',*,*,#113,.F.);
#150=ORIENTED_EDGE('',*,*,#107,.F.);
#151=ORIENTED_EDGE('',*,*,#97,.T.);
#152=ORIENTED_EDGE('',*,*,#113,.T.);
#153=ORIENTED_EDGE('',*,*,#101,.F.);
#154=ORIENTED_EDGE('',*,*,#106,.F.);
#155=ORIENTED_EDGE('',*,*,#108,.F.);
#156=(
BOUNDED_SURFACE()
B_SPLINE_SURFACE(2,2,((#236,#237,#238),(#239,#240,#241),(#242,#243,#244)),
 .UNSPECIFIED.,.F.,.F.,.F.)
B_SPLINE_SURFACE_WITH_KNOTS((3,3),(3,3),(-0.323091482200408,-2.08931007812751E-6),
(-2.11299411063635,-1.02859852974443),.UNSPECIFIED.)
GEOMETRIC_REPRESENTATION_ITEM()
RATIONAL_B_SPLINE_SURFACE(((1.,0.856576647616188,1.),(0.986980007401168,
0.845424026003892,0.986980007401168),(1.,0.856576647616188,1.)))
REPRESENTATION_ITEM('')
SURFACE()
);
#157=(
BOUNDED_SURFACE()
B_SPLINE_SURFACE(2,2,((#267,#268,#269),(#270,#271,#272),(#273,#274,#275)),
 .UNSPECIFIED.,.F.,.F.,.F.)
B_SPLINE_SURFACE_WITH_KNOTS((3,3),(3,3),(-2.08931007813257E-6,0.32309233187519),
(-2.11299421127025,-1.02859842911053),.UNSPECIFIED.)
GEOMETRIC_REPRESENTATION_ITEM()
RATIONAL_B_SPLINE_SURFACE(((1.,0.856576595687096,1.),(0.986979603015052,
0.845423628363235,0.986979603015052),(1.,0.856576595687096,1.)))
REPRESENTATION_ITEM('')
SURFACE()
);
#158=ADVANCED_FACE('',(#46),#156,.F.);
#159=ADVANCED_FACE('',(#47),#157,.F.);
#160=ADVANCED_FACE('',(#48,#17,#18),#41,.T.);
#161=ADVANCED_FACE('',(#49),#42,.T.);
#162=ADVANCED_FACE('',(#50,#19,#20),#43,.F.);
#163=ADVANCED_FACE('',(#51),#15,.F.);
#164=ADVANCED_FACE('',(#52),#16,.F.);
#165=ADVANCED_FACE('',(#53),#44,.T.);
#166=ADVANCED_FACE('',(#54),#45,.T.);
#167=CLOSED_SHELL('',(#158,#159,#160,#161,#162,#163,#164,#165,#166));
#168=DERIVED_UNIT_ELEMENT(#170,1.);
#169=DERIVED_UNIT_ELEMENT(#329,-3.);
#170=(
MASS_UNIT()
NAMED_UNIT(*)
SI_UNIT(.KILO.,.GRAM.)
);
#171=DERIVED_UNIT((#168,#169));
#172=MEASURE_REPRESENTATION_ITEM('density measure',
POSITIVE_RATIO_MEASURE(7850.),#171);
#173=PROPERTY_DEFINITION_REPRESENTATION(#178,#175);
#174=PROPERTY_DEFINITION_REPRESENTATION(#179,#176);
#175=REPRESENTATION('material name',(#177),#326);
#176=REPRESENTATION('density',(#172),#326);
#177=DESCRIPTIVE_REPRESENTATION_ITEM('Steel','Steel');
#178=PROPERTY_DEFINITION('material property','material name',#336);
#179=PROPERTY_DEFINITION('material property','density of part',#336);
#180=AXIS2_PLACEMENT_3D('',#235,#195,#196);
#181=AXIS2_PLACEMENT_3D('',#256,#197,#198);
#182=AXIS2_PLACEMENT_3D('',#266,#199,#200);
#183=AXIS2_PLACEMENT_3D('',#286,#201,#202);
#184=AXIS2_PLACEMENT_3D('',#295,#203,#204);
#185=AXIS2_PLACEMENT_3D('',#302,#208,#209);
#186=AXIS2_PLACEMENT_3D('',#304,#210,#211);
#187=AXIS2_PLACEMENT_3D('',#305,#212,#213);
#188=AXIS2_PLACEMENT_3D('',#309,#216,#217);
#189=AXIS2_PLACEMENT_3D('',#314,#220,#221);
#190=AXIS2_PLACEMENT_3D('',#316,#222,#223);
#191=AXIS2_PLACEMENT_3D('',#317,#224,#225);
#192=AXIS2_PLACEMENT_3D('',#319,#227,#228);
#193=AXIS2_PLACEMENT_3D('',#321,#230,#231);
#194=AXIS2_PLACEMENT_3D('',#323,#233,#234);
#195=DIRECTION('axis',(0.,0.,1.));
#196=DIRECTION('refdir',(1.,0.,0.));
#197=DIRECTION('center_axis',(-1.,1.31914344238361E-21,-3.45547030453966E-22));
#198=DIRECTION('ref_axis',(-1.35525271560687E-21,-1.,5.48204130979E-9));
#199=DIRECTION('center_axis',(1.,0.,0.));
#200=DIRECTION('ref_axis',(0.,0.,1.));
#201=DIRECTION('center_axis',(-1.,0.,0.));
#202=DIRECTION('ref_axis',(0.,0.,1.));
#203=DIRECTION('center_axis',(1.,0.,0.));
#204=DIRECTION('ref_axis',(0.,0.,-1.));
#205=DIRECTION('',(0.,1.,5.86825152882655E-13));
#206=DIRECTION('',(0.,0.,1.));
#207=DIRECTION('',(0.,-1.,-2.32481688919795E-12));
#208=DIRECTION('center_axis',(-1.,0.,0.));
#209=DIRECTION('ref_axis',(0.,0.,-1.));
#210=DIRECTION('center_axis',(-1.,0.,0.));
#211=DIRECTION('ref_axis',(0.,0.,-1.));
#212=DIRECTION('center_axis',(0.,5.86825152882655E-13,-1.));
#213=DIRECTION('ref_axis',(0.,1.,5.86825152882655E-13));
#214=DIRECTION('',(0.,-1.,-5.86825152882655E-13));
#215=DIRECTION('',(1.,0.,0.));
#216=DIRECTION('center_axis',(1.,0.,0.));
#217=DIRECTION('ref_axis',(0.,0.,-1.));
#218=DIRECTION('',(0.,1.,2.32481688919795E-12));
#219=DIRECTION('',(0.,0.,-1.));
#220=DIRECTION('center_axis',(1.,0.,0.));
#221=DIRECTION('ref_axis',(0.,0.,-1.));
#222=DIRECTION('center_axis',(1.,0.,0.));
#223=DIRECTION('ref_axis',(0.,0.,-1.));
#224=DIRECTION('center_axis',(1.,0.,0.));
#225=DIRECTION('ref_axis',(0.,0.,-1.));
#226=DIRECTION('',(-1.,0.,0.));
#227=DIRECTION('center_axis',(1.,0.,0.));
#228=DIRECTION('ref_axis',(0.,0.,-1.));
#229=DIRECTION('',(-1.,0.,0.));
#230=DIRECTION('center_axis',(0.,-2.32481688919795E-12,1.));
#231=DIRECTION('ref_axis',(0.,-1.,-2.32481688919795E-12));
#232=DIRECTION('',(1.,0.,0.));
#233=DIRECTION('center_axis',(0.,1.,0.));
#234=DIRECTION('ref_axis',(0.,0.,1.));
#235=CARTESIAN_POINT('',(0.,0.,0.));
#236=CARTESIAN_POINT('Ctrl Pts',(19.05,17.0015733417576,-50.0000000000394));
#237=CARTESIAN_POINT('Ctrl Pts',(19.05,-13.1194793479823,1.98893837355595E-7));
#238=CARTESIAN_POINT('Ctrl Pts',(19.05,17.0015740022079,49.9999999999579));
#239=CARTESIAN_POINT('Ctrl Pts',(9.77803649034383,14.3423523967154,-51.6019706776512));
#240=CARTESIAN_POINT('Ctrl Pts',(9.77803649034383,-16.7437611673599,2.22830417773239E-7));
#241=CARTESIAN_POINT('Ctrl Pts',(9.77803649034383,14.3423530783262,51.6019707126954));
#242=CARTESIAN_POINT('Ctrl Pts',(0.000149529938903714,14.3423348976787,
-51.6019812194393));
#243=CARTESIAN_POINT('Ctrl Pts',(0.000149529938903714,-16.7437850169919,
2.22830575288206E-7));
#244=CARTESIAN_POINT('Ctrl Pts',(0.000149529938903714,14.3423355792896,
51.6019812544837));
#245=CARTESIAN_POINT('',(8.68506365602057E-5,13.397459938031,49.9999999999469));
#246=CARTESIAN_POINT('',(19.05,17.0015740022079,49.9999999999579));
#247=CARTESIAN_POINT('Ctrl Pts',(0.000149529938903714,13.3974599381716,
49.9999999999496));
#248=CARTESIAN_POINT('Ctrl Pts',(2.98884908362699,13.3974671484914,49.9999999999496));
#249=CARTESIAN_POINT('Ctrl Pts',(6.25593248539212,13.6726041637482,49.9999999999502));
#250=CARTESIAN_POINT('Ctrl Pts',(12.6729778984779,14.8592488717548,49.999999999953));
#251=CARTESIAN_POINT('Ctrl Pts',(15.8229889699063,15.7704917663286,49.9999999999551));
#252=CARTESIAN_POINT('Ctrl Pts',(18.7602988923145,16.8890694556546,49.9999999999577));
#253=CARTESIAN_POINT('Ctrl Pts',(18.9049641380211,16.9448814969718,49.9999999999578));
#254=CARTESIAN_POINT('Ctrl Pts',(19.05,17.0015740022079,49.9999999999579));
#255=CARTESIAN_POINT('',(8.68506365602057E-5,13.3974593050725,-50.0000000000389));
#256=CARTESIAN_POINT('Origin',(0.000149529938904269,100.,-5.48204130979002E-7));
#257=CARTESIAN_POINT('',(19.05,17.0015733417576,-50.0000000000395));
#258=CARTESIAN_POINT('Ctrl Pts',(19.05,17.0015733417576,-50.0000000000394));
#259=CARTESIAN_POINT('Ctrl Pts',(18.9049642123167,16.9448808660139,-50.0000000000395));
#260=CARTESIAN_POINT('Ctrl Pts',(18.760299040545,16.8890688532864,-50.0000000000395));
#261=CARTESIAN_POINT('Ctrl Pts',(15.8229891595688,15.7704911735614,-50.0000000000402));
#262=CARTESIAN_POINT('Ctrl Pts',(12.6729780511162,14.8592482635704,-50.0000000000407));
#263=CARTESIAN_POINT('Ctrl Pts',(6.25593256140336,13.6726035354714,-50.0000000000414));
#264=CARTESIAN_POINT('Ctrl Pts',(2.9888491200363,13.3974665155329,-50.0000000000416));
#265=CARTESIAN_POINT('Ctrl Pts',(0.000149529938904269,13.3974593052131,
-50.0000000000416));
#266=CARTESIAN_POINT('Origin',(19.05,100.,-5.48204111743711E-7));
#267=CARTESIAN_POINT('Ctrl Pts',(0.000149529938904017,14.3423400905877,
-51.6019898395041));
#268=CARTESIAN_POINT('Ctrl Pts',(0.000149529938904017,-16.743792094466,
2.22830774694094E-7));
#269=CARTESIAN_POINT('Ctrl Pts',(0.000149529938904017,14.3423407721989,
51.6019898745486));
#270=CARTESIAN_POINT('Ctrl Pts',(-9.777892285549,14.3423225912749,-51.6020003814609));
#271=CARTESIAN_POINT('Ctrl Pts',(-9.777892285549,-16.7438159444771,2.22830932211597E-7));
#272=CARTESIAN_POINT('Ctrl Pts',(-9.777892285549,14.3423232728862,51.6020004165057));
#273=CARTESIAN_POINT('Ctrl Pts',(-19.05,17.0015922382628,-50.0000000000395));
#274=CARTESIAN_POINT('Ctrl Pts',(-19.05,-13.1194673092308,1.98893905768881E-7));
#275=CARTESIAN_POINT('Ctrl Pts',(-19.05,17.0015928987132,49.9999999999579));
#276=CARTESIAN_POINT('',(-19.05,17.0015928987132,49.9999999999579));
#277=CARTESIAN_POINT('Ctrl Pts',(-19.05,17.0015928987132,49.9999999999579));
#278=CARTESIAN_POINT('Ctrl Pts',(-18.9049479413937,16.9448938989893,49.9999999999578));
#279=CARTESIAN_POINT('Ctrl Pts',(-18.7602665764368,16.8890755589297,49.9999999999577));
#280=CARTESIAN_POINT('Ctrl Pts',(-15.8229406272379,15.7704917663286,49.9999999999551));
#281=CARTESIAN_POINT('Ctrl Pts',(-12.6729295558094,14.8592488717548,49.999999999953));
#282=CARTESIAN_POINT('Ctrl Pts',(-6.25583928334206,13.6725958683187,49.9999999999502));
#283=CARTESIAN_POINT('Ctrl Pts',(-2.98870938403238,13.3974599380203,49.9999999999496));
#284=CARTESIAN_POINT('Ctrl Pts',(2.41713342169492E-5,13.3974599380203,49.9999999999496));
#285=CARTESIAN_POINT('',(-19.05,17.0015922382628,-50.0000000000395));
#286=CARTESIAN_POINT('Origin',(-19.05,100.,-5.48204111743711E-7));
#287=CARTESIAN_POINT('Ctrl Pts',(2.41713342141736E-5,13.3974593050619,-50.0000000000416));
#288=CARTESIAN_POINT('Ctrl Pts',(-2.98870942044169,13.3974593050619,-50.0000000000416));
#289=CARTESIAN_POINT('Ctrl Pts',(-6.2558393593533,13.6725952400419,-50.0000000000414));
#290=CARTESIAN_POINT('Ctrl Pts',(-12.6729297084477,14.8592482635704,-50.0000000000407));
#291=CARTESIAN_POINT('Ctrl Pts',(-15.8229408169004,15.7704911735614,-50.0000000000402));
#292=CARTESIAN_POINT('Ctrl Pts',(-18.7602667246673,16.8890749565615,-50.0000000000395));
#293=CARTESIAN_POINT('Ctrl Pts',(-18.9049480156894,16.9448932680313,-50.0000000000395));
#294=CARTESIAN_POINT('Ctrl Pts',(-19.05,17.0015922382628,-50.0000000000394));
#295=CARTESIAN_POINT('Origin',(19.05,22.5,-1.3705084178639E-7));
#296=CARTESIAN_POINT('',(19.05,45.,-50.000000000023));
#297=CARTESIAN_POINT('',(19.05,45.,-50.000000000023));
#298=CARTESIAN_POINT('',(19.05,45.,50.000000000023));
#299=CARTESIAN_POINT('',(19.05,45.,50.000000000023));
#300=CARTESIAN_POINT('',(19.05,13.3974599380422,49.9999999999496));
#301=CARTESIAN_POINT('',(19.05,35.,3.1));
#302=CARTESIAN_POINT('Origin',(19.05,35.,-3.10862446895044E-15));
#303=CARTESIAN_POINT('',(19.05,20.,3.1));
#304=CARTESIAN_POINT('Origin',(19.05,20.,0.));
#305=CARTESIAN_POINT('Origin',(0.,13.3974599380422,-50.0000000000416));
#306=CARTESIAN_POINT('',(-19.05,45.,-50.000000000023));
#307=CARTESIAN_POINT('',(-19.05,45.,-50.000000000023));
#308=CARTESIAN_POINT('',(0.,45.,-50.000000000023));
#309=CARTESIAN_POINT('Origin',(-19.05,22.5,-1.3705084178639E-7));
#310=CARTESIAN_POINT('',(-19.05,45.,50.000000000023));
#311=CARTESIAN_POINT('',(-19.05,13.3974599380422,49.9999999999496));
#312=CARTESIAN_POINT('',(-19.05,45.,50.000000000023));
#313=CARTESIAN_POINT('',(-19.05,20.,3.1));
#314=CARTESIAN_POINT('Origin',(-19.05,20.,0.));
#315=CARTESIAN_POINT('',(-19.05,35.,3.1));
#316=CARTESIAN_POINT('Origin',(-19.05,35.,-3.10862446895044E-15));
#317=CARTESIAN_POINT('Origin',(0.,35.,-3.10862446895044E-15));
#318=CARTESIAN_POINT('',(0.,35.,3.1));
#319=CARTESIAN_POINT('Origin',(0.,20.,0.));
#320=CARTESIAN_POINT('',(0.,20.,3.1));
#321=CARTESIAN_POINT('Origin',(0.,45.,50.000000000023));
#322=CARTESIAN_POINT('',(0.,45.,50.000000000023));
#323=CARTESIAN_POINT('Origin',(0.,45.,-50.000000000023));
#324=UNCERTAINTY_MEASURE_WITH_UNIT(LENGTH_MEASURE(0.01),#328,
'DISTANCE_ACCURACY_VALUE',
'Maximum model space distance between geometric entities at asserted c
onnectivities');
#325=UNCERTAINTY_MEASURE_WITH_UNIT(LENGTH_MEASURE(0.01),#328,
'DISTANCE_ACCURACY_VALUE',
'Maximum model space distance between geometric entities at asserted c
onnectivities');
#326=(
GEOMETRIC_REPRESENTATION_CONTEXT(3)
GLOBAL_UNCERTAINTY_ASSIGNED_CONTEXT((#324))
GLOBAL_UNIT_ASSIGNED_CONTEXT((#328,#330,#331))
REPRESENTATION_CONTEXT('','3D')
);
#327=(
GEOMETRIC_REPRESENTATION_CONTEXT(3)
GLOBAL_UNCERTAINTY_ASSIGNED_CONTEXT((#325))
GLOBAL_UNIT_ASSIGNED_CONTEXT((#328,#330,#331))
REPRESENTATION_CONTEXT('','3D')
);
#328=(
LENGTH_UNIT()
NAMED_UNIT(*)
SI_UNIT(.MILLI.,.METRE.)
);
#329=(
LENGTH_UNIT()
NAMED_UNIT(*)
SI_UNIT($,.METRE.)
);
#330=(
NAMED_UNIT(*)
PLANE_ANGLE_UNIT()
SI_UNIT($,.RADIAN.)
);
#331=(
NAMED_UNIT(*)
SI_UNIT($,.STERADIAN.)
SOLID_ANGLE_UNIT()
);
#332=SHAPE_DEFINITION_REPRESENTATION(#333,#334);
#333=PRODUCT_DEFINITION_SHAPE('',$,#336);
#334=SHAPE_REPRESENTATION('',(#180),#326);
#335=PRODUCT_DEFINITION_CONTEXT('part definition',#340,'design');
#336=PRODUCT_DEFINITION('DIE - CNC Flatter','DIE - CNC Flatter v2',#337,
#335);
#337=PRODUCT_DEFINITION_FORMATION('',$,#342);
#338=PRODUCT_RELATED_PRODUCT_CATEGORY('DIE - CNC Flatter v2',
'DIE - CNC Flatter v2',(#342));
#339=APPLICATION_PROTOCOL_DEFINITION('international standard',
'automotive_design',2009,#340);
#340=APPLICATION_CONTEXT(
'Core Data for Automotive Mechanical Design Process');
#341=PRODUCT_CONTEXT('part definition',#340,'mechanical');
#342=PRODUCT('DIE - CNC Flatter','DIE - CNC Flatter v2',$,(#341));
#343=PRESENTATION_STYLE_ASSIGNMENT((#344));
#344=SURFACE_STYLE_USAGE(.BOTH.,#345);
#345=SURFACE_SIDE_STYLE('',(#346));
#346=SURFACE_STYLE_FILL_AREA(#347);
#347=FILL_AREA_STYLE('Steel - Satin',(#348));
#348=FILL_AREA_STYLE_COLOUR('Steel - Satin',#349);
#349=COLOUR_RGB('Steel - Satin',0.627450980392157,0.627450980392157,0.627450980392157);
ENDSEC;
END-ISO-10303-21;
