ISO-10303-21;
HEADER;
/* Generated by software containing ST-Developer
 * from STEP Tools, Inc. (www.steptools.com) 
 */

FILE_DESCRIPTION(
/* description */ (''),
/* implementation_level */ '2;1');

FILE_NAME(
/* name */ 'DIE - CNC v4.step',
/* time_stamp */ '2024-08-06T21:52:54-07:00',
/* author */ (''),
/* organization */ (''),
/* preprocessor_version */ 'ST-DEVELOPER v20',
/* originating_system */ 'Autodesk Translation Framework v13.14.0.145',

/* authorisation */ '');

FILE_SCHEMA (('AUTOMOTIVE_DESIGN { 1 0 10303 214 3 1 1 }'));
ENDSEC;

DATA;
#10=MECHANICAL_DESIGN_GEOMETRIC_PRESENTATION_REPRESENTATION('',(#13),#399);
#11=SHAPE_REPRESENTATION_RELATIONSHIP('SRR','None',#406,#12);
#12=ADVANCED_BREP_SHAPE_REPRESENTATION('',(#14),#398);
#13=STYLED_ITEM('',(#415),#14);
#14=MANIFOLD_SOLID_BREP('Body1',#198);
#15=CYLINDRICAL_SURFACE('',#223,3.1);
#16=CYLINDRICAL_SURFACE('',#225,3.1);
#17=FACE_BOUND('',#62,.T.);
#18=FACE_BOUND('',#63,.T.);
#19=FACE_BOUND('',#70,.T.);
#20=FACE_BOUND('',#71,.T.);
#21=LINE('',#369,#31);
#22=LINE('',#371,#32);
#23=LINE('',#372,#33);
#24=LINE('',#380,#34);
#25=LINE('',#384,#35);
#26=LINE('',#387,#36);
#27=LINE('',#388,#37);
#28=LINE('',#391,#38);
#29=LINE('',#392,#39);
#30=LINE('',#394,#40);
#31=VECTOR('',#251,10.);
#32=VECTOR('',#252,10.);
#33=VECTOR('',#253,10.);
#34=VECTOR('',#262,3.1);
#35=VECTOR('',#267,3.1);
#36=VECTOR('',#270,10.);
#37=VECTOR('',#271,10.);
#38=VECTOR('',#274,10.);
#39=VECTOR('',#275,10.);
#40=VECTOR('',#278,10.);
#41=PLANE('',#220);
#42=PLANE('',#227);
#43=PLANE('',#228);
#44=PLANE('',#229);
#45=PLANE('',#230);
#46=FACE_OUTER_BOUND('',#57,.T.);
#47=FACE_OUTER_BOUND('',#58,.T.);
#48=FACE_OUTER_BOUND('',#59,.T.);
#49=FACE_OUTER_BOUND('',#60,.T.);
#50=FACE_OUTER_BOUND('',#61,.T.);
#51=FACE_OUTER_BOUND('',#64,.T.);
#52=FACE_OUTER_BOUND('',#65,.T.);
#53=FACE_OUTER_BOUND('',#66,.T.);
#54=FACE_OUTER_BOUND('',#67,.T.);
#55=FACE_OUTER_BOUND('',#68,.T.);
#56=FACE_OUTER_BOUND('',#69,.T.);
#57=EDGE_LOOP('',(#131,#132,#133,#134));
#58=EDGE_LOOP('',(#135,#136,#137,#138));
#59=EDGE_LOOP('',(#139,#140,#141,#142));
#60=EDGE_LOOP('',(#143,#144,#145,#146));
#61=EDGE_LOOP('',(#147,#148,#149,#150,#151));
#62=EDGE_LOOP('',(#152));
#63=EDGE_LOOP('',(#153));
#64=EDGE_LOOP('',(#154,#155,#156,#157));
#65=EDGE_LOOP('',(#158,#159,#160,#161));
#66=EDGE_LOOP('',(#162,#163,#164,#165,#166));
#67=EDGE_LOOP('',(#167,#168,#169,#170));
#68=EDGE_LOOP('',(#171,#172,#173,#174,#175));
#69=EDGE_LOOP('',(#176,#177,#178,#179,#180));
#70=EDGE_LOOP('',(#181));
#71=EDGE_LOOP('',(#182));
#72=CIRCLE('',#212,58.1753835052702);
#73=CIRCLE('',#213,30.000000000017);
#74=CIRCLE('',#214,65.000000000016);
#75=CIRCLE('',#215,65.000000000016);
#76=CIRCLE('',#216,58.1753835052702);
#77=CIRCLE('',#217,58.1753446443518);
#78=CIRCLE('',#218,30.000000000017);
#79=CIRCLE('',#219,58.1753446443518);
#80=CIRCLE('',#221,3.1);
#81=CIRCLE('',#222,3.1);
#82=CIRCLE('',#224,3.1);
#83=CIRCLE('',#226,3.1);
#84=B_SPLINE_CURVE_WITH_KNOTS('',3,(#293,#294,#295,#296,#297,#298,#299,
#300),.UNSPECIFIED.,.F.,.F.,(4,2,2,4),(0.,1.08950510413166,1.64248314379223,
2.18607928035124),.UNSPECIFIED.);
#85=B_SPLINE_CURVE_WITH_KNOTS('',3,(#317,#318,#319,#320,#321,#322,#323,
#324),.UNSPECIFIED.,.F.,.F.,(4,2,2,4),(0.,0.933473637593419,1.5383237718795,
2.17666297990606),.UNSPECIFIED.);
#86=B_SPLINE_CURVE_WITH_KNOTS('',3,(#337,#338,#339,#340,#341,#342,#343,
#344),.UNSPECIFIED.,.F.,.F.,(4,2,2,4),(0.,1.08950678378472,1.64248575087785,
2.18608326350665),.UNSPECIFIED.);
#87=B_SPLINE_CURVE_WITH_KNOTS('',3,(#358,#359,#360,#361,#362,#363,#364,
#365),.UNSPECIFIED.,.F.,.F.,(4,2,2,4),(0.,0.933473743447903,1.53832485541682,
2.17666722470024),.UNSPECIFIED.);
#88=VERTEX_POINT('',#291);
#89=VERTEX_POINT('',#292);
#90=VERTEX_POINT('',#301);
#91=VERTEX_POINT('',#303);
#92=VERTEX_POINT('',#315);
#93=VERTEX_POINT('',#316);
#94=VERTEX_POINT('',#336);
#95=VERTEX_POINT('',#345);
#96=VERTEX_POINT('',#357);
#97=VERTEX_POINT('',#368);
#98=VERTEX_POINT('',#370);
#99=VERTEX_POINT('',#373);
#100=VERTEX_POINT('',#375);
#101=VERTEX_POINT('',#378);
#102=VERTEX_POINT('',#382);
#103=VERTEX_POINT('',#386);
#104=VERTEX_POINT('',#390);
#105=EDGE_CURVE('',#88,#89,#84,.T.);
#106=EDGE_CURVE('',#90,#88,#72,.T.);
#107=EDGE_CURVE('',#91,#90,#73,.T.);
#108=EDGE_CURVE('',#91,#89,#74,.T.);
#109=EDGE_CURVE('',#92,#93,#85,.T.);
#110=EDGE_CURVE('',#91,#92,#75,.T.);
#111=EDGE_CURVE('',#93,#90,#76,.T.);
#112=EDGE_CURVE('',#94,#92,#86,.T.);
#113=EDGE_CURVE('',#95,#94,#77,.T.);
#114=EDGE_CURVE('',#95,#91,#78,.T.);
#115=EDGE_CURVE('',#89,#96,#87,.T.);
#116=EDGE_CURVE('',#96,#95,#79,.T.);
#117=EDGE_CURVE('',#94,#97,#21,.T.);
#118=EDGE_CURVE('',#97,#98,#22,.T.);
#119=EDGE_CURVE('',#98,#96,#23,.T.);
#120=EDGE_CURVE('',#99,#99,#80,.T.);
#121=EDGE_CURVE('',#100,#100,#81,.T.);
#122=EDGE_CURVE('',#101,#101,#82,.T.);
#123=EDGE_CURVE('',#101,#100,#24,.T.);
#124=EDGE_CURVE('',#102,#102,#83,.T.);
#125=EDGE_CURVE('',#102,#99,#25,.T.);
#126=EDGE_CURVE('',#103,#93,#26,.T.);
#127=EDGE_CURVE('',#97,#103,#27,.T.);
#128=EDGE_CURVE('',#104,#103,#28,.T.);
#129=EDGE_CURVE('',#98,#104,#29,.T.);
#130=EDGE_CURVE('',#88,#104,#30,.T.);
#131=ORIENTED_EDGE('',*,*,#105,.F.);
#132=ORIENTED_EDGE('',*,*,#106,.F.);
#133=ORIENTED_EDGE('',*,*,#107,.F.);
#134=ORIENTED_EDGE('',*,*,#108,.T.);
#135=ORIENTED_EDGE('',*,*,#109,.F.);
#136=ORIENTED_EDGE('',*,*,#110,.F.);
#137=ORIENTED_EDGE('',*,*,#107,.T.);
#138=ORIENTED_EDGE('',*,*,#111,.F.);
#139=ORIENTED_EDGE('',*,*,#112,.F.);
#140=ORIENTED_EDGE('',*,*,#113,.F.);
#141=ORIENTED_EDGE('',*,*,#114,.T.);
#142=ORIENTED_EDGE('',*,*,#110,.T.);
#143=ORIENTED_EDGE('',*,*,#115,.F.);
#144=ORIENTED_EDGE('',*,*,#108,.F.);
#145=ORIENTED_EDGE('',*,*,#114,.F.);
#146=ORIENTED_EDGE('',*,*,#116,.F.);
#147=ORIENTED_EDGE('',*,*,#113,.T.);
#148=ORIENTED_EDGE('',*,*,#117,.T.);
#149=ORIENTED_EDGE('',*,*,#118,.T.);
#150=ORIENTED_EDGE('',*,*,#119,.T.);
#151=ORIENTED_EDGE('',*,*,#116,.T.);
#152=ORIENTED_EDGE('',*,*,#120,.T.);
#153=ORIENTED_EDGE('',*,*,#121,.T.);
#154=ORIENTED_EDGE('',*,*,#122,.F.);
#155=ORIENTED_EDGE('',*,*,#123,.T.);
#156=ORIENTED_EDGE('',*,*,#121,.F.);
#157=ORIENTED_EDGE('',*,*,#123,.F.);
#158=ORIENTED_EDGE('',*,*,#124,.F.);
#159=ORIENTED_EDGE('',*,*,#125,.T.);
#160=ORIENTED_EDGE('',*,*,#120,.F.);
#161=ORIENTED_EDGE('',*,*,#125,.F.);
#162=ORIENTED_EDGE('',*,*,#109,.T.);
#163=ORIENTED_EDGE('',*,*,#126,.F.);
#164=ORIENTED_EDGE('',*,*,#127,.F.);
#165=ORIENTED_EDGE('',*,*,#117,.F.);
#166=ORIENTED_EDGE('',*,*,#112,.T.);
#167=ORIENTED_EDGE('',*,*,#127,.T.);
#168=ORIENTED_EDGE('',*,*,#128,.F.);
#169=ORIENTED_EDGE('',*,*,#129,.F.);
#170=ORIENTED_EDGE('',*,*,#118,.F.);
#171=ORIENTED_EDGE('',*,*,#115,.T.);
#172=ORIENTED_EDGE('',*,*,#119,.F.);
#173=ORIENTED_EDGE('',*,*,#129,.T.);
#174=ORIENTED_EDGE('',*,*,#130,.F.);
#175=ORIENTED_EDGE('',*,*,#105,.T.);
#176=ORIENTED_EDGE('',*,*,#106,.T.);
#177=ORIENTED_EDGE('',*,*,#130,.T.);
#178=ORIENTED_EDGE('',*,*,#128,.T.);
#179=ORIENTED_EDGE('',*,*,#126,.T.);
#180=ORIENTED_EDGE('',*,*,#111,.T.);
#181=ORIENTED_EDGE('',*,*,#124,.T.);
#182=ORIENTED_EDGE('',*,*,#122,.T.);
#183=(
BOUNDED_SURFACE()
B_SPLINE_SURFACE(2,2,((#282,#283,#284),(#285,#286,#287),(#288,#289,#290)),
 .UNSPECIFIED.,.F.,.F.,.F.)
B_SPLINE_SURFACE_WITH_KNOTS((3,3),(3,3),(0.688009540006778,1.37601704007033),
(0.,1.02496968545557),.UNSPECIFIED.)
GEOMETRIC_REPRESENTATION_ITEM()
RATIONAL_B_SPLINE_SURFACE(((1.,0.871528770857888,1.),(0.941411913964502,
0.820467568248454,0.941411913964502),(1.,0.871528770857888,1.)))
REPRESENTATION_ITEM('')
SURFACE()
);
#184=(
BOUNDED_SURFACE()
B_SPLINE_SURFACE(2,2,((#306,#307,#308),(#309,#310,#311),(#312,#313,#314)),
 .UNSPECIFIED.,.F.,.F.,.F.)
B_SPLINE_SURFACE_WITH_KNOTS((3,3),(3,3),(-1.37601704007033,-0.688009540006778),
(0.,1.02476755517753),.UNSPECIFIED.)
GEOMETRIC_REPRESENTATION_ITEM()
RATIONAL_B_SPLINE_SURFACE(((1.,0.871578323128795,1.),(0.941411913964502,
0.820514217346649,0.941411913964502),(1.,0.871578323128795,1.)))
REPRESENTATION_ITEM('')
SURFACE()
);
#185=(
BOUNDED_SURFACE()
B_SPLINE_SURFACE(2,2,((#327,#328,#329),(#330,#331,#332),(#333,#334,#335)),
 .UNSPECIFIED.,.F.,.F.,.F.)
B_SPLINE_SURFACE_WITH_KNOTS((3,3),(3,3),(-0.688008520035164,-9.868649107768E-17),
(0.,1.02476755517753),.UNSPECIFIED.)
GEOMETRIC_REPRESENTATION_ITEM()
RATIONAL_B_SPLINE_SURFACE(((1.,0.871578323128795,1.),(0.941411741967097,
0.82051406743744,0.941411741967097),(1.,0.871578323128795,1.)))
REPRESENTATION_ITEM('')
SURFACE()
);
#186=(
BOUNDED_SURFACE()
B_SPLINE_SURFACE(2,2,((#348,#349,#350),(#351,#352,#353),(#354,#355,#356)),
 .UNSPECIFIED.,.F.,.F.,.F.)
B_SPLINE_SURFACE_WITH_KNOTS((3,3),(3,3),(9.868649107768E-17,0.688008520035164),
(0.,1.02496968545557),.UNSPECIFIED.)
GEOMETRIC_REPRESENTATION_ITEM()
RATIONAL_B_SPLINE_SURFACE(((1.,0.871528770857888,1.),(0.941411741967097,
0.820467418347767,0.941411741967097),(1.,0.871528770857888,1.)))
REPRESENTATION_ITEM('')
SURFACE()
);
#187=ADVANCED_FACE('',(#46),#183,.F.);
#188=ADVANCED_FACE('',(#47),#184,.F.);
#189=ADVANCED_FACE('',(#48),#185,.F.);
#190=ADVANCED_FACE('',(#49),#186,.F.);
#191=ADVANCED_FACE('',(#50,#17,#18),#41,.F.);
#192=ADVANCED_FACE('',(#51),#15,.F.);
#193=ADVANCED_FACE('',(#52),#16,.F.);
#194=ADVANCED_FACE('',(#53),#42,.T.);
#195=ADVANCED_FACE('',(#54),#43,.T.);
#196=ADVANCED_FACE('',(#55),#44,.T.);
#197=ADVANCED_FACE('',(#56,#19,#20),#45,.T.);
#198=CLOSED_SHELL('',(#187,#188,#189,#190,#191,#192,#193,#194,#195,#196,
#197));
#199=DERIVED_UNIT_ELEMENT(#201,1.);
#200=DERIVED_UNIT_ELEMENT(#401,-3.);
#201=(
MASS_UNIT()
NAMED_UNIT(*)
SI_UNIT(.KILO.,.GRAM.)
);
#202=DERIVED_UNIT((#199,#200));
#203=MEASURE_REPRESENTATION_ITEM('density measure',
POSITIVE_RATIO_MEASURE(7850.),#202);
#204=PROPERTY_DEFINITION_REPRESENTATION(#209,#206);
#205=PROPERTY_DEFINITION_REPRESENTATION(#210,#207);
#206=REPRESENTATION('material name',(#208),#398);
#207=REPRESENTATION('density',(#203),#398);
#208=DESCRIPTIVE_REPRESENTATION_ITEM('Steel','Steel');
#209=PROPERTY_DEFINITION('material property','material name',#408);
#210=PROPERTY_DEFINITION('material property','density of part',#408);
#211=AXIS2_PLACEMENT_3D('',#281,#231,#232);
#212=AXIS2_PLACEMENT_3D('',#302,#233,#234);
#213=AXIS2_PLACEMENT_3D('',#304,#235,#236);
#214=AXIS2_PLACEMENT_3D('',#305,#237,#238);
#215=AXIS2_PLACEMENT_3D('',#325,#239,#240);
#216=AXIS2_PLACEMENT_3D('',#326,#241,#242);
#217=AXIS2_PLACEMENT_3D('',#346,#243,#244);
#218=AXIS2_PLACEMENT_3D('',#347,#245,#246);
#219=AXIS2_PLACEMENT_3D('',#366,#247,#248);
#220=AXIS2_PLACEMENT_3D('',#367,#249,#250);
#221=AXIS2_PLACEMENT_3D('',#374,#254,#255);
#222=AXIS2_PLACEMENT_3D('',#376,#256,#257);
#223=AXIS2_PLACEMENT_3D('',#377,#258,#259);
#224=AXIS2_PLACEMENT_3D('',#379,#260,#261);
#225=AXIS2_PLACEMENT_3D('',#381,#263,#264);
#226=AXIS2_PLACEMENT_3D('',#383,#265,#266);
#227=AXIS2_PLACEMENT_3D('',#385,#268,#269);
#228=AXIS2_PLACEMENT_3D('',#389,#272,#273);
#229=AXIS2_PLACEMENT_3D('',#393,#276,#277);
#230=AXIS2_PLACEMENT_3D('',#395,#279,#280);
#231=DIRECTION('axis',(0.,0.,1.));
#232=DIRECTION('refdir',(1.,0.,0.));
#233=DIRECTION('center_axis',(1.,0.,0.));
#234=DIRECTION('ref_axis',(0.,-0.999999999999988,-1.57672064378985E-7));
#235=DIRECTION('center_axis',(0.,0.,1.));
#236=DIRECTION('ref_axis',(-0.63500078794009,-0.772511488144652,0.));
#237=DIRECTION('center_axis',(1.,0.,0.));
#238=DIRECTION('ref_axis',(0.,-0.99999999999999,-1.4111742789712E-7));
#239=DIRECTION('center_axis',(-1.,0.,0.));
#240=DIRECTION('ref_axis',(0.,-0.99999999999999,-1.4111742789712E-7));
#241=DIRECTION('center_axis',(1.,0.,0.));
#242=DIRECTION('ref_axis',(0.,-0.999999999999988,-1.57672064378985E-7));
#243=DIRECTION('center_axis',(-1.,0.,0.));
#244=DIRECTION('ref_axis',(0.,-0.999999999999988,-1.5767216970335E-7));
#245=DIRECTION('center_axis',(0.,0.,1.));
#246=DIRECTION('ref_axis',(-0.63500078794009,-0.772511488144652,0.));
#247=DIRECTION('center_axis',(-1.,0.,0.));
#248=DIRECTION('ref_axis',(0.,-0.999999999999988,-1.5767216970335E-7));
#249=DIRECTION('center_axis',(1.,0.,0.));
#250=DIRECTION('ref_axis',(0.,0.,-1.));
#251=DIRECTION('',(0.,1.,2.27616371123879E-12));
#252=DIRECTION('',(0.,0.,-1.));
#253=DIRECTION('',(0.,-1.,-2.86052450033994E-13));
#254=DIRECTION('center_axis',(1.,0.,0.));
#255=DIRECTION('ref_axis',(0.,0.,-1.));
#256=DIRECTION('center_axis',(1.,0.,0.));
#257=DIRECTION('ref_axis',(0.,0.,-1.));
#258=DIRECTION('center_axis',(1.,0.,0.));
#259=DIRECTION('ref_axis',(0.,0.,-1.));
#260=DIRECTION('center_axis',(-1.,0.,0.));
#261=DIRECTION('ref_axis',(0.,0.,-1.));
#262=DIRECTION('',(-1.,0.,0.));
#263=DIRECTION('center_axis',(1.,0.,0.));
#264=DIRECTION('ref_axis',(0.,0.,-1.));
#265=DIRECTION('center_axis',(-1.,0.,0.));
#266=DIRECTION('ref_axis',(0.,0.,-1.));
#267=DIRECTION('',(-1.,0.,0.));
#268=DIRECTION('center_axis',(0.,-2.27616371123879E-12,1.));
#269=DIRECTION('ref_axis',(0.,-1.,-2.27616371123879E-12));
#270=DIRECTION('',(0.,-1.,-2.27616371123879E-12));
#271=DIRECTION('',(1.,0.,0.));
#272=DIRECTION('center_axis',(0.,1.,0.));
#273=DIRECTION('ref_axis',(0.,0.,1.));
#274=DIRECTION('',(0.,0.,1.));
#275=DIRECTION('',(1.,0.,0.));
#276=DIRECTION('center_axis',(0.,2.86052450033994E-13,-1.));
#277=DIRECTION('ref_axis',(0.,1.,2.86052450033994E-13));
#278=DIRECTION('',(0.,1.,2.86052450033994E-13));
#279=DIRECTION('center_axis',(1.,0.,0.));
#280=DIRECTION('ref_axis',(0.,0.,-1.));
#281=CARTESIAN_POINT('',(0.,0.,0.));
#282=CARTESIAN_POINT('Ctrl Pts',(2.36382134832791E-5,-1.67776903481354E-11,
0.));
#283=CARTESIAN_POINT('Ctrl Pts',(2.36382134832791E-5,5.16074098122488E-6,
-36.5706619685904));
#284=CARTESIAN_POINT('Ctrl Pts',(2.36382134832791E-5,31.2568960435278,-55.5553950234028));
#285=CARTESIAN_POINT('Ctrl Pts',(10.7474645249743,-1.67776903481354E-11,
0.));
#286=CARTESIAN_POINT('Ctrl Pts',(10.7474645249743,5.16074098122488E-6,-36.5706619685904));
#287=CARTESIAN_POINT('Ctrl Pts',(10.7474645249743,31.2568960435278,-55.5553950234028));
#288=CARTESIAN_POINT('Ctrl Pts',(19.05,6.82461649472906,0.));
#289=CARTESIAN_POINT('Ctrl Pts',(19.05,6.82462165548682,-32.730958231751));
#290=CARTESIAN_POINT('Ctrl Pts',(19.05,34.7997236950519,-49.7224058641506));
#291=CARTESIAN_POINT('',(19.05,22.7581426524253,-40.0000000000228));
#292=CARTESIAN_POINT('',(2.36382134843893E-5,13.7652533314599,-40.0000000000254));
#293=CARTESIAN_POINT('Ctrl Pts',(19.05,22.7581426524253,-40.0000000000228));
#294=CARTESIAN_POINT('Ctrl Pts',(16.6456633575256,20.0363249391276,-40.0000000000236));
#295=CARTESIAN_POINT('Ctrl Pts',(13.7879053191628,17.789036672858,-40.0000000003188));
#296=CARTESIAN_POINT('Ctrl Pts',(8.8791371870487,15.4091851041742,-40.0000000003195));
#297=CARTESIAN_POINT('Ctrl Pts',(7.14716839589437,14.7925349808713,-40.0000000002368));
#298=CARTESIAN_POINT('Ctrl Pts',(3.59989960738845,13.971828800354,-40.000000000237));
#299=CARTESIAN_POINT('Ctrl Pts',(1.80474461747784,13.7652533314599,-40.0000000000254));
#300=CARTESIAN_POINT('Ctrl Pts',(2.36382134821689E-5,13.7652533314599,-40.0000000000254));
#301=CARTESIAN_POINT('',(19.05,6.82461649472905,0.));
#302=CARTESIAN_POINT('Origin',(19.05,64.9999999999986,9.17263281331508E-6));
#303=CARTESIAN_POINT('',(2.36382134810587E-5,-1.67776903481354E-11,0.));
#304=CARTESIAN_POINT('Origin',(2.36382134810587E-5,30.0000000000002,0.));
#305=CARTESIAN_POINT('Origin',(2.36382134843893E-5,64.9999999999986,9.17263281331508E-6));
#306=CARTESIAN_POINT('Ctrl Pts',(19.05,6.82461649472906,0.));
#307=CARTESIAN_POINT('Ctrl Pts',(19.05,6.82461133519173,32.7232180263996));
#308=CARTESIAN_POINT('Ctrl Pts',(19.05,34.7896582287406,49.7163092768144));
#309=CARTESIAN_POINT('Ctrl Pts',(10.7474645249743,-1.67776903481354E-11,
0.));
#310=CARTESIAN_POINT('Ctrl Pts',(10.7474645249743,-5.15955410840263E-6,
36.5620137514661));
#311=CARTESIAN_POINT('Ctrl Pts',(10.7474645249743,31.245651625878,55.548582204175));
#312=CARTESIAN_POINT('Ctrl Pts',(2.36382134832791E-5,-1.67776903481354E-11,
0.));
#313=CARTESIAN_POINT('Ctrl Pts',(2.36382134832791E-5,-5.15955410840263E-6,
36.5620137514661));
#314=CARTESIAN_POINT('Ctrl Pts',(2.36382134832791E-5,31.245651625878,55.548582204175));
#315=CARTESIAN_POINT('',(2.36382134843893E-5,13.7652390088789,39.9999999999433));
#316=CARTESIAN_POINT('',(19.05,22.7581252807261,39.9999999999637));
#317=CARTESIAN_POINT('Ctrl Pts',(2.36382134849444E-5,13.7652390088789,39.9999999999433));
#318=CARTESIAN_POINT('Ctrl Pts',(3.11160243019155,13.7652390088789,39.9999999999433));
#319=CARTESIAN_POINT('Ctrl Pts',(6.17387087754577,14.3786973105205,39.9999999996082));
#320=CARTESIAN_POINT('Ctrl Pts',(10.9268760593462,16.3149401822595,39.9999999996126));
#321=CARTESIAN_POINT('Ctrl Pts',(12.6917355180224,17.2998945100202,39.9999999993382));
#322=CARTESIAN_POINT('Ctrl Pts',(16.0640209309393,19.7184756539654,39.9999999993437));
#323=CARTESIAN_POINT('Ctrl Pts',(17.6381584556426,21.1598575192119,39.9999999999601));
#324=CARTESIAN_POINT('Ctrl Pts',(19.05,22.7581252807261,39.9999999999637));
#325=CARTESIAN_POINT('Origin',(2.36382134843893E-5,64.9999999999986,9.17263281331508E-6));
#326=CARTESIAN_POINT('Origin',(19.05,64.9999999999986,9.17263281331508E-6));
#327=CARTESIAN_POINT('Ctrl Pts',(-6.96093492513761E-6,-1.17239551400417E-12,
0.));
#328=CARTESIAN_POINT('Ctrl Pts',(-6.96093492513761E-6,-5.1595385031078E-6,
36.5620137514573));
#329=CARTESIAN_POINT('Ctrl Pts',(-6.96093492513761E-6,31.2456516258861,
55.5485822041617));
#330=CARTESIAN_POINT('Ctrl Pts',(-10.7474651108401,1.09621010579986E-5,
0.));
#331=CARTESIAN_POINT('Ctrl Pts',(-10.7474651108401,5.80256372728627E-6,
36.5620075853568));
#332=CARTESIAN_POINT('Ctrl Pts',(-10.7474651108401,31.2456573184789,55.5485728360203));
#333=CARTESIAN_POINT('Ctrl Pts',(-19.05,6.82465535564752,0.));
#334=CARTESIAN_POINT('Ctrl Pts',(-19.05,6.82465019611019,32.7231961674237));
#335=CARTESIAN_POINT('Ctrl Pts',(-19.05,34.7896784091202,49.716276066526));
#336=CARTESIAN_POINT('',(-19.05,22.7581787998828,39.9999999999637));
#337=CARTESIAN_POINT('Ctrl Pts',(-19.05,22.7581787998828,39.9999999999637));
#338=CARTESIAN_POINT('Ctrl Pts',(-16.6456655205089,20.0363517054507,39.9999999999575));
#339=CARTESIAN_POINT('Ctrl Pts',(-13.7879079341718,17.7890538581767,40.0000000002461));
#340=CARTESIAN_POINT('Ctrl Pts',(-8.87913685656553,15.4091887446179,40.0000000002407));
#341=CARTESIAN_POINT('Ctrl Pts',(-7.14716636311518,14.7925342971159,40.0000000001572));
#342=CARTESIAN_POINT('Ctrl Pts',(-3.59989165367539,13.9718201141686,40.0000000001554));
#343=CARTESIAN_POINT('Ctrl Pts',(-1.80473246737656,13.7652413442267,39.9999999999433));
#344=CARTESIAN_POINT('Ctrl Pts',(-6.9609349245825E-6,13.7652390088987,39.9999999999433));
#345=CARTESIAN_POINT('',(-19.05,6.82465535564753,0.));
#346=CARTESIAN_POINT('Origin',(-19.05,64.9999999999986,9.17263281331508E-6));
#347=CARTESIAN_POINT('Origin',(2.36382134810587E-5,30.0000000000002,0.));
#348=CARTESIAN_POINT('Ctrl Pts',(-19.05,6.82465535564752,0.));
#349=CARTESIAN_POINT('Ctrl Pts',(-19.05,6.82466051640528,-32.7309363676047));
#350=CARTESIAN_POINT('Ctrl Pts',(-19.05,34.7997438687183,-49.7223726497837));
#351=CARTESIAN_POINT('Ctrl Pts',(-10.7474651108401,1.09621010579986E-5,
0.));
#352=CARTESIAN_POINT('Ctrl Pts',(-10.7474651108401,1.61228588169138E-5,
-36.5706558010226));
#353=CARTESIAN_POINT('Ctrl Pts',(-10.7474651108401,31.256901734235,-55.5553856540976));
#354=CARTESIAN_POINT('Ctrl Pts',(-6.96093492513761E-6,-1.17239551400417E-12,
0.));
#355=CARTESIAN_POINT('Ctrl Pts',(-6.96093492513761E-6,5.16075658651971E-6,
-36.5706619685816));
#356=CARTESIAN_POINT('Ctrl Pts',(-6.96093492513761E-6,31.2568960435359,
-55.5553950233894));
#357=CARTESIAN_POINT('',(-19.05,22.758196171604,-40.0000000000228));
#358=CARTESIAN_POINT('Ctrl Pts',(-6.96093492624783E-6,13.7652533314797,
-40.0000000000254));
#359=CARTESIAN_POINT('Ctrl Pts',(-3.11158610575867,13.7652573578869,-40.0000000000254));
#360=CARTESIAN_POINT('Ctrl Pts',(-6.17385405299884,14.3787199270297,-39.9999999996887));
#361=CARTESIAN_POINT('Ctrl Pts',(-10.9268599514245,16.3149707197085,-39.9999999996882));
#362=CARTESIAN_POINT('Ctrl Pts',(-12.6917207449796,17.2999294083528,-39.9999999994113));
#363=CARTESIAN_POINT('Ctrl Pts',(-16.0640133498787,19.7185243139835,-39.9999999994106));
#364=CARTESIAN_POINT('Ctrl Pts',(-17.6381555279915,21.1599168347911,-40.0000000000233));
#365=CARTESIAN_POINT('Ctrl Pts',(-19.05,22.758196171604,-40.0000000000228));
#366=CARTESIAN_POINT('Origin',(-19.05,64.9999999999986,9.17263281331508E-6));
#367=CARTESIAN_POINT('Origin',(-19.05,24.9999999999995,1.59872115546023E-13));
#368=CARTESIAN_POINT('',(-19.05,50.,40.0000000000257));
#369=CARTESIAN_POINT('',(-19.05,13.7652390088996,39.9999999999433));
#370=CARTESIAN_POINT('',(-19.05,50.,-40.000000000015));
#371=CARTESIAN_POINT('',(-19.05,50.,40.0000000000257));
#372=CARTESIAN_POINT('',(-19.05,50.,-40.000000000015));
#373=CARTESIAN_POINT('',(-19.05,20.,3.1));
#374=CARTESIAN_POINT('Origin',(-19.05,20.,0.));
#375=CARTESIAN_POINT('',(-19.05,35.,3.1));
#376=CARTESIAN_POINT('Origin',(-19.05,35.,-3.10862446895044E-15));
#377=CARTESIAN_POINT('Origin',(0.,35.,-3.10862446895044E-15));
#378=CARTESIAN_POINT('',(19.05,35.,3.1));
#379=CARTESIAN_POINT('Origin',(19.05,35.,-3.10862446895044E-15));
#380=CARTESIAN_POINT('',(0.,35.,3.1));
#381=CARTESIAN_POINT('Origin',(0.,20.,0.));
#382=CARTESIAN_POINT('',(19.05,20.,3.1));
#383=CARTESIAN_POINT('Origin',(19.05,20.,0.));
#384=CARTESIAN_POINT('',(0.,20.,3.1));
#385=CARTESIAN_POINT('Origin',(0.,50.,40.0000000000257));
#386=CARTESIAN_POINT('',(19.05,50.,40.0000000000257));
#387=CARTESIAN_POINT('',(19.05,13.7652390088996,39.9999999999433));
#388=CARTESIAN_POINT('',(0.,50.,40.0000000000257));
#389=CARTESIAN_POINT('Origin',(0.,50.,-40.0000000000151));
#390=CARTESIAN_POINT('',(19.05,50.,-40.000000000015));
#391=CARTESIAN_POINT('',(19.05,50.,40.0000000000257));
#392=CARTESIAN_POINT('',(0.,50.,-40.000000000015));
#393=CARTESIAN_POINT('Origin',(0.,13.7652533314806,-40.0000000000254));
#394=CARTESIAN_POINT('',(19.05,50.,-40.000000000015));
#395=CARTESIAN_POINT('Origin',(19.05,24.9999999999995,1.59872115546023E-13));
#396=UNCERTAINTY_MEASURE_WITH_UNIT(LENGTH_MEASURE(0.01),#400,
'DISTANCE_ACCURACY_VALUE',
'Maximum model space distance between geometric entities at asserted c
onnectivities');
#397=UNCERTAINTY_MEASURE_WITH_UNIT(LENGTH_MEASURE(0.01),#400,
'DISTANCE_ACCURACY_VALUE',
'Maximum model space distance between geometric entities at asserted c
onnectivities');
#398=(
GEOMETRIC_REPRESENTATION_CONTEXT(3)
GLOBAL_UNCERTAINTY_ASSIGNED_CONTEXT((#396))
GLOBAL_UNIT_ASSIGNED_CONTEXT((#400,#402,#403))
REPRESENTATION_CONTEXT('','3D')
);
#399=(
GEOMETRIC_REPRESENTATION_CONTEXT(3)
GLOBAL_UNCERTAINTY_ASSIGNED_CONTEXT((#397))
GLOBAL_UNIT_ASSIGNED_CONTEXT((#400,#402,#403))
REPRESENTATION_CONTEXT('','3D')
);
#400=(
LENGTH_UNIT()
NAMED_UNIT(*)
SI_UNIT(.MILLI.,.METRE.)
);
#401=(
LENGTH_UNIT()
NAMED_UNIT(*)
SI_UNIT($,.METRE.)
);
#402=(
NAMED_UNIT(*)
PLANE_ANGLE_UNIT()
SI_UNIT($,.RADIAN.)
);
#403=(
NAMED_UNIT(*)
SI_UNIT($,.STERADIAN.)
SOLID_ANGLE_UNIT()
);
#404=SHAPE_DEFINITION_REPRESENTATION(#405,#406);
#405=PRODUCT_DEFINITION_SHAPE('',$,#408);
#406=SHAPE_REPRESENTATION('',(#211),#398);
#407=PRODUCT_DEFINITION_CONTEXT('part definition',#412,'design');
#408=PRODUCT_DEFINITION('DIE - CNC','DIE - CNC v4',#409,#407);
#409=PRODUCT_DEFINITION_FORMATION('',$,#414);
#410=PRODUCT_RELATED_PRODUCT_CATEGORY('DIE - CNC v4','DIE - CNC v4',(#414));
#411=APPLICATION_PROTOCOL_DEFINITION('international standard',
'automotive_design',2009,#412);
#412=APPLICATION_CONTEXT(
'Core Data for Automotive Mechanical Design Process');
#413=PRODUCT_CONTEXT('part definition',#412,'mechanical');
#414=PRODUCT('DIE - CNC','DIE - CNC v4',$,(#413));
#415=PRESENTATION_STYLE_ASSIGNMENT((#416));
#416=SURFACE_STYLE_USAGE(.BOTH.,#417);
#417=SURFACE_SIDE_STYLE('',(#418));
#418=SURFACE_STYLE_FILL_AREA(#419);
#419=FILL_AREA_STYLE('Steel - Satin',(#420));
#420=FILL_AREA_STYLE_COLOUR('Steel - Satin',#421);
#421=COLOUR_RGB('Steel - Satin',0.627450980392157,0.627450980392157,0.627450980392157);
ENDSEC;
END-ISO-10303-21;
