ISO-10303-21;
HEADER;
/* Generated by software containing ST-Developer
 * from STEP Tools, Inc. (www.steptools.com) 
 */

FILE_DESCRIPTION(
/* description */ (''),
/* implementation_level */ '2;1');

FILE_NAME(
/* name */ 'dropuot_aligment_tool_prawy_v2_poprawiony v2.step',
/* time_stamp */ '2023-01-17T23:31:47+01:00',
/* author */ (''),
/* organization */ (''),
/* preprocessor_version */ 'ST-DEVELOPER v19.2',
/* originating_system */ 'Autodesk Translation Framework v11.17.0.187',

/* authorisation */ '');

FILE_SCHEMA (('AUTOMOTIVE_DESIGN { 1 0 10303 214 3 1 1 }'));
ENDSEC;

DATA;
#10=MECHANICAL_DESIGN_GEOMETRIC_PRESENTATION_REPRESENTATION('',(#23,#24),
#434);
#11=ITEM_DEFINED_TRANSFORMATION($,$,#250,#283);
#12=ITEM_DEFINED_TRANSFORMATION($,$,#266,#284);
#13=(
REPRESENTATION_RELATIONSHIP($,$,#448,#447)
REPRESENTATION_RELATIONSHIP_WITH_TRANSFORMATION(#11)
SHAPE_REPRESENTATION_RELATIONSHIP()
);
#14=(
REPRESENTATION_RELATIONSHIP($,$,#449,#447)
REPRESENTATION_RELATIONSHIP_WITH_TRANSFORMATION(#12)
SHAPE_REPRESENTATION_RELATIONSHIP()
);
#15=CONTEXT_DEPENDENT_SHAPE_REPRESENTATION(#13,#445);
#16=CONTEXT_DEPENDENT_SHAPE_REPRESENTATION(#14,#446);
#17=NEXT_ASSEMBLY_USAGE_OCCURRENCE('Komponent1:1','Komponent1:1',
'Komponent1:1',#451,#452,'Komponent1:1');
#18=NEXT_ASSEMBLY_USAGE_OCCURRENCE('Komponent2:1','Komponent2:1',
'Komponent2:1',#451,#453,'Komponent2:1');
#19=SHAPE_REPRESENTATION_RELATIONSHIP('SRR','None',#448,#21);
#20=SHAPE_REPRESENTATION_RELATIONSHIP('SRR','None',#449,#22);
#21=ADVANCED_BREP_SHAPE_REPRESENTATION('',(#25),#432);
#22=ADVANCED_BREP_SHAPE_REPRESENTATION('',(#26),#433);
#23=STYLED_ITEM('',(#466),#25);
#24=STYLED_ITEM('',(#466),#26);
#25=MANIFOLD_SOLID_BREP('Bry\X2\0142\X0\a1',#224);
#26=MANIFOLD_SOLID_BREP('Bry\X2\0142\X0\a1',#225);
#27=FACE_BOUND('',#68,.T.);
#28=FACE_BOUND('',#72,.T.);
#29=FACE_BOUND('',#74,.T.);
#30=FACE_BOUND('',#78,.T.);
#31=FACE_BOUND('',#81,.T.);
#32=FACE_BOUND('',#84,.T.);
#33=PLANE('',#258);
#34=PLANE('',#259);
#35=PLANE('',#265);
#36=PLANE('',#267);
#37=PLANE('',#274);
#38=PLANE('',#279);
#39=PLANE('',#282);
#40=CYLINDRICAL_SURFACE('',#253,3.38975);
#41=CYLINDRICAL_SURFACE('',#262,9.525);
#42=CYLINDRICAL_SURFACE('',#263,5.9944);
#43=CYLINDRICAL_SURFACE('',#270,7.);
#44=CYLINDRICAL_SURFACE('',#272,4.2);
#45=CYLINDRICAL_SURFACE('',#277,9.525);
#46=CYLINDRICAL_SURFACE('',#280,5.9944);
#47=FACE_OUTER_BOUND('',#63,.T.);
#48=FACE_OUTER_BOUND('',#64,.T.);
#49=FACE_OUTER_BOUND('',#65,.T.);
#50=FACE_OUTER_BOUND('',#66,.T.);
#51=FACE_OUTER_BOUND('',#67,.T.);
#52=FACE_OUTER_BOUND('',#69,.T.);
#53=FACE_OUTER_BOUND('',#70,.T.);
#54=FACE_OUTER_BOUND('',#71,.T.);
#55=FACE_OUTER_BOUND('',#73,.T.);
#56=FACE_OUTER_BOUND('',#75,.T.);
#57=FACE_OUTER_BOUND('',#76,.T.);
#58=FACE_OUTER_BOUND('',#77,.T.);
#59=FACE_OUTER_BOUND('',#79,.T.);
#60=FACE_OUTER_BOUND('',#80,.T.);
#61=FACE_OUTER_BOUND('',#82,.T.);
#62=FACE_OUTER_BOUND('',#83,.T.);
#63=EDGE_LOOP('',(#158,#159,#160));
#64=EDGE_LOOP('',(#161,#162,#163,#164));
#65=EDGE_LOOP('',(#165,#166,#167,#168));
#66=EDGE_LOOP('',(#169));
#67=EDGE_LOOP('',(#170));
#68=EDGE_LOOP('',(#171));
#69=EDGE_LOOP('',(#172,#173,#174,#175));
#70=EDGE_LOOP('',(#176,#177,#178,#179));
#71=EDGE_LOOP('',(#180));
#72=EDGE_LOOP('',(#181));
#73=EDGE_LOOP('',(#182));
#74=EDGE_LOOP('',(#183));
#75=EDGE_LOOP('',(#184,#185,#186,#187));
#76=EDGE_LOOP('',(#188,#189,#190,#191));
#77=EDGE_LOOP('',(#192));
#78=EDGE_LOOP('',(#193));
#79=EDGE_LOOP('',(#194,#195,#196,#197));
#80=EDGE_LOOP('',(#198));
#81=EDGE_LOOP('',(#199));
#82=EDGE_LOOP('',(#200,#201,#202,#203));
#83=EDGE_LOOP('',(#204));
#84=EDGE_LOOP('',(#205));
#85=LINE('',#372,#94);
#86=LINE('',#376,#95);
#87=LINE('',#381,#96);
#88=LINE('',#390,#97);
#89=LINE('',#393,#98);
#90=LINE('',#405,#99);
#91=LINE('',#408,#100);
#92=LINE('',#418,#101);
#93=LINE('',#422,#102);
#94=VECTOR('',#293,1.695);
#95=VECTOR('',#298,3.39);
#96=VECTOR('',#303,9.525);
#97=VECTOR('',#316,9.525);
#98=VECTOR('',#319,5.9944);
#99=VECTOR('',#336,7.);
#100=VECTOR('',#339,4.05);
#101=VECTOR('',#352,9.525);
#102=VECTOR('',#357,5.9944);
#103=CIRCLE('',#252,3.38975);
#104=CIRCLE('',#254,3.38975);
#105=CIRCLE('',#256,21.3389077074672);
#106=CIRCLE('',#257,9.525);
#107=CIRCLE('',#260,9.525);
#108=CIRCLE('',#261,5.9944);
#109=CIRCLE('',#264,5.9944);
#110=CIRCLE('',#268,7.);
#111=CIRCLE('',#269,4.2);
#112=CIRCLE('',#271,7.);
#113=CIRCLE('',#273,4.2);
#114=CIRCLE('',#275,9.525);
#115=CIRCLE('',#276,5.9944);
#116=CIRCLE('',#278,9.525);
#117=CIRCLE('',#281,5.9944);
#118=VERTEX_POINT('',#369);
#119=VERTEX_POINT('',#371);
#120=VERTEX_POINT('',#374);
#121=VERTEX_POINT('',#378);
#122=VERTEX_POINT('',#380);
#123=VERTEX_POINT('',#385);
#124=VERTEX_POINT('',#387);
#125=VERTEX_POINT('',#392);
#126=VERTEX_POINT('',#398);
#127=VERTEX_POINT('',#400);
#128=VERTEX_POINT('',#403);
#129=VERTEX_POINT('',#407);
#130=VERTEX_POINT('',#411);
#131=VERTEX_POINT('',#413);
#132=VERTEX_POINT('',#416);
#133=VERTEX_POINT('',#421);
#134=EDGE_CURVE('',#118,#118,#103,.T.);
#135=EDGE_CURVE('',#118,#119,#85,.T.);
#136=EDGE_CURVE('',#120,#120,#104,.F.);
#137=EDGE_CURVE('',#120,#118,#86,.T.);
#138=EDGE_CURVE('',#121,#121,#105,.T.);
#139=EDGE_CURVE('',#121,#122,#87,.T.);
#140=EDGE_CURVE('',#122,#122,#106,.T.);
#141=EDGE_CURVE('',#123,#123,#107,.T.);
#142=EDGE_CURVE('',#124,#124,#108,.T.);
#143=EDGE_CURVE('',#122,#123,#88,.T.);
#144=EDGE_CURVE('',#124,#125,#89,.T.);
#145=EDGE_CURVE('',#125,#125,#109,.T.);
#146=EDGE_CURVE('',#126,#126,#110,.T.);
#147=EDGE_CURVE('',#127,#127,#111,.F.);
#148=EDGE_CURVE('',#128,#128,#112,.T.);
#149=EDGE_CURVE('',#128,#126,#90,.T.);
#150=EDGE_CURVE('',#127,#129,#91,.T.);
#151=EDGE_CURVE('',#129,#129,#113,.F.);
#152=EDGE_CURVE('',#130,#130,#114,.T.);
#153=EDGE_CURVE('',#131,#131,#115,.T.);
#154=EDGE_CURVE('',#132,#132,#116,.T.);
#155=EDGE_CURVE('',#132,#130,#92,.T.);
#156=EDGE_CURVE('',#131,#133,#93,.T.);
#157=EDGE_CURVE('',#133,#133,#117,.T.);
#158=ORIENTED_EDGE('',*,*,#134,.F.);
#159=ORIENTED_EDGE('',*,*,#135,.T.);
#160=ORIENTED_EDGE('',*,*,#135,.F.);
#161=ORIENTED_EDGE('',*,*,#136,.F.);
#162=ORIENTED_EDGE('',*,*,#137,.T.);
#163=ORIENTED_EDGE('',*,*,#134,.T.);
#164=ORIENTED_EDGE('',*,*,#137,.F.);
#165=ORIENTED_EDGE('',*,*,#138,.T.);
#166=ORIENTED_EDGE('',*,*,#139,.T.);
#167=ORIENTED_EDGE('',*,*,#140,.T.);
#168=ORIENTED_EDGE('',*,*,#139,.F.);
#169=ORIENTED_EDGE('',*,*,#138,.F.);
#170=ORIENTED_EDGE('',*,*,#141,.F.);
#171=ORIENTED_EDGE('',*,*,#142,.T.);
#172=ORIENTED_EDGE('',*,*,#140,.F.);
#173=ORIENTED_EDGE('',*,*,#143,.T.);
#174=ORIENTED_EDGE('',*,*,#141,.T.);
#175=ORIENTED_EDGE('',*,*,#143,.F.);
#176=ORIENTED_EDGE('',*,*,#142,.F.);
#177=ORIENTED_EDGE('',*,*,#144,.T.);
#178=ORIENTED_EDGE('',*,*,#145,.T.);
#179=ORIENTED_EDGE('',*,*,#144,.F.);
#180=ORIENTED_EDGE('',*,*,#145,.F.);
#181=ORIENTED_EDGE('',*,*,#136,.T.);
#182=ORIENTED_EDGE('',*,*,#146,.F.);
#183=ORIENTED_EDGE('',*,*,#147,.T.);
#184=ORIENTED_EDGE('',*,*,#148,.F.);
#185=ORIENTED_EDGE('',*,*,#149,.T.);
#186=ORIENTED_EDGE('',*,*,#146,.T.);
#187=ORIENTED_EDGE('',*,*,#149,.F.);
#188=ORIENTED_EDGE('',*,*,#147,.F.);
#189=ORIENTED_EDGE('',*,*,#150,.T.);
#190=ORIENTED_EDGE('',*,*,#151,.F.);
#191=ORIENTED_EDGE('',*,*,#150,.F.);
#192=ORIENTED_EDGE('',*,*,#152,.F.);
#193=ORIENTED_EDGE('',*,*,#153,.T.);
#194=ORIENTED_EDGE('',*,*,#154,.F.);
#195=ORIENTED_EDGE('',*,*,#155,.T.);
#196=ORIENTED_EDGE('',*,*,#152,.T.);
#197=ORIENTED_EDGE('',*,*,#155,.F.);
#198=ORIENTED_EDGE('',*,*,#154,.T.);
#199=ORIENTED_EDGE('',*,*,#148,.T.);
#200=ORIENTED_EDGE('',*,*,#153,.F.);
#201=ORIENTED_EDGE('',*,*,#156,.T.);
#202=ORIENTED_EDGE('',*,*,#157,.T.);
#203=ORIENTED_EDGE('',*,*,#156,.F.);
#204=ORIENTED_EDGE('',*,*,#157,.F.);
#205=ORIENTED_EDGE('',*,*,#151,.T.);
#206=CONICAL_SURFACE('',#251,1.69493368394535,1.02974425867665);
#207=CONICAL_SURFACE('',#255,9.525,0.174532925199433);
#208=ADVANCED_FACE('',(#47),#206,.F.);
#209=ADVANCED_FACE('',(#48),#40,.F.);
#210=ADVANCED_FACE('',(#49),#207,.T.);
#211=ADVANCED_FACE('',(#50),#33,.T.);
#212=ADVANCED_FACE('',(#51,#27),#34,.F.);
#213=ADVANCED_FACE('',(#52),#41,.T.);
#214=ADVANCED_FACE('',(#53),#42,.F.);
#215=ADVANCED_FACE('',(#54,#28),#35,.F.);
#216=ADVANCED_FACE('',(#55,#29),#36,.F.);
#217=ADVANCED_FACE('',(#56),#43,.F.);
#218=ADVANCED_FACE('',(#57),#44,.F.);
#219=ADVANCED_FACE('',(#58,#30),#37,.F.);
#220=ADVANCED_FACE('',(#59),#45,.T.);
#221=ADVANCED_FACE('',(#60,#31),#38,.T.);
#222=ADVANCED_FACE('',(#61),#46,.T.);
#223=ADVANCED_FACE('',(#62,#32),#39,.F.);
#224=CLOSED_SHELL('',(#208,#209,#210,#211,#212,#213,#214,#215));
#225=CLOSED_SHELL('',(#216,#217,#218,#219,#220,#221,#222,#223));
#226=DERIVED_UNIT_ELEMENT(#230,1.);
#227=DERIVED_UNIT_ELEMENT(#436,-3.);
#228=DERIVED_UNIT_ELEMENT(#230,1.);
#229=DERIVED_UNIT_ELEMENT(#436,-3.);
#230=(
MASS_UNIT()
NAMED_UNIT(*)
SI_UNIT(.KILO.,.GRAM.)
);
#231=DERIVED_UNIT((#226,#227));
#232=DERIVED_UNIT((#228,#229));
#233=MEASURE_REPRESENTATION_ITEM('density measure',
POSITIVE_RATIO_MEASURE(7850.),#231);
#234=MEASURE_REPRESENTATION_ITEM('density measure',
POSITIVE_RATIO_MEASURE(7850.),#232);
#235=PROPERTY_DEFINITION_REPRESENTATION(#245,#239);
#236=PROPERTY_DEFINITION_REPRESENTATION(#246,#240);
#237=PROPERTY_DEFINITION_REPRESENTATION(#247,#241);
#238=PROPERTY_DEFINITION_REPRESENTATION(#248,#242);
#239=REPRESENTATION('material name',(#243),#432);
#240=REPRESENTATION('density',(#233),#432);
#241=REPRESENTATION('material name',(#244),#433);
#242=REPRESENTATION('density',(#234),#433);
#243=DESCRIPTIVE_REPRESENTATION_ITEM('Stal','Stal');
#244=DESCRIPTIVE_REPRESENTATION_ITEM('Stal','Stal');
#245=PROPERTY_DEFINITION('material property','material name',#452);
#246=PROPERTY_DEFINITION('material property','density of part',#452);
#247=PROPERTY_DEFINITION('material property','material name',#453);
#248=PROPERTY_DEFINITION('material property','density of part',#453);
#249=AXIS2_PLACEMENT_3D('placement',#366,#285,#286);
#250=AXIS2_PLACEMENT_3D('placement',#367,#287,#288);
#251=AXIS2_PLACEMENT_3D('',#368,#289,#290);
#252=AXIS2_PLACEMENT_3D('',#370,#291,#292);
#253=AXIS2_PLACEMENT_3D('',#373,#294,#295);
#254=AXIS2_PLACEMENT_3D('',#375,#296,#297);
#255=AXIS2_PLACEMENT_3D('',#377,#299,#300);
#256=AXIS2_PLACEMENT_3D('',#379,#301,#302);
#257=AXIS2_PLACEMENT_3D('',#382,#304,#305);
#258=AXIS2_PLACEMENT_3D('',#383,#306,#307);
#259=AXIS2_PLACEMENT_3D('',#384,#308,#309);
#260=AXIS2_PLACEMENT_3D('',#386,#310,#311);
#261=AXIS2_PLACEMENT_3D('',#388,#312,#313);
#262=AXIS2_PLACEMENT_3D('',#389,#314,#315);
#263=AXIS2_PLACEMENT_3D('',#391,#317,#318);
#264=AXIS2_PLACEMENT_3D('',#394,#320,#321);
#265=AXIS2_PLACEMENT_3D('',#395,#322,#323);
#266=AXIS2_PLACEMENT_3D('placement',#396,#324,#325);
#267=AXIS2_PLACEMENT_3D('',#397,#326,#327);
#268=AXIS2_PLACEMENT_3D('',#399,#328,#329);
#269=AXIS2_PLACEMENT_3D('',#401,#330,#331);
#270=AXIS2_PLACEMENT_3D('',#402,#332,#333);
#271=AXIS2_PLACEMENT_3D('',#404,#334,#335);
#272=AXIS2_PLACEMENT_3D('',#406,#337,#338);
#273=AXIS2_PLACEMENT_3D('',#409,#340,#341);
#274=AXIS2_PLACEMENT_3D('',#410,#342,#343);
#275=AXIS2_PLACEMENT_3D('',#412,#344,#345);
#276=AXIS2_PLACEMENT_3D('',#414,#346,#347);
#277=AXIS2_PLACEMENT_3D('',#415,#348,#349);
#278=AXIS2_PLACEMENT_3D('',#417,#350,#351);
#279=AXIS2_PLACEMENT_3D('',#419,#353,#354);
#280=AXIS2_PLACEMENT_3D('',#420,#355,#356);
#281=AXIS2_PLACEMENT_3D('',#423,#358,#359);
#282=AXIS2_PLACEMENT_3D('',#424,#360,#361);
#283=AXIS2_PLACEMENT_3D('',#425,#362,#363);
#284=AXIS2_PLACEMENT_3D('',#426,#364,#365);
#285=DIRECTION('axis',(0.,0.,1.));
#286=DIRECTION('refdir',(1.,0.,0.));
#287=DIRECTION('axis',(0.,0.,1.));
#288=DIRECTION('refdir',(1.,0.,0.));
#289=DIRECTION('center_axis',(0.,-1.,0.));
#290=DIRECTION('ref_axis',(0.,0.,-1.));
#291=DIRECTION('center_axis',(0.,1.,0.));
#292=DIRECTION('ref_axis',(0.,0.,-1.));
#293=DIRECTION('',(-1.04972719113862E-16,0.515038074910054,-0.857167300702112));
#294=DIRECTION('center_axis',(0.,1.,0.));
#295=DIRECTION('ref_axis',(0.,0.,-1.));
#296=DIRECTION('center_axis',(0.,-1.,0.));
#297=DIRECTION('ref_axis',(0.,0.,-1.));
#298=DIRECTION('',(0.,1.,0.));
#299=DIRECTION('center_axis',(0.,1.,0.));
#300=DIRECTION('ref_axis',(-1.,0.,0.));
#301=DIRECTION('center_axis',(0.,-1.,0.));
#302=DIRECTION('ref_axis',(-1.,0.,0.));
#303=DIRECTION('',(-0.17364817766693,-0.984807753012208,2.12657684957577E-17));
#304=DIRECTION('center_axis',(0.,1.,0.));
#305=DIRECTION('ref_axis',(-1.,0.,0.));
#306=DIRECTION('center_axis',(0.,1.,0.));
#307=DIRECTION('ref_axis',(-1.,0.,0.));
#308=DIRECTION('center_axis',(0.,1.,0.));
#309=DIRECTION('ref_axis',(-1.,0.,0.));
#310=DIRECTION('center_axis',(0.,1.,0.));
#311=DIRECTION('ref_axis',(-1.,0.,0.));
#312=DIRECTION('center_axis',(0.,1.,0.));
#313=DIRECTION('ref_axis',(1.,0.,0.));
#314=DIRECTION('center_axis',(0.,1.,0.));
#315=DIRECTION('ref_axis',(-1.,0.,0.));
#316=DIRECTION('',(0.,-1.,0.));
#317=DIRECTION('center_axis',(0.,1.,0.));
#318=DIRECTION('ref_axis',(1.,0.,0.));
#319=DIRECTION('',(0.,1.,0.));
#320=DIRECTION('center_axis',(0.,1.,0.));
#321=DIRECTION('ref_axis',(1.,0.,0.));
#322=DIRECTION('center_axis',(0.,1.,0.));
#323=DIRECTION('ref_axis',(1.,0.,0.));
#324=DIRECTION('axis',(0.,0.,1.));
#325=DIRECTION('refdir',(1.,0.,0.));
#326=DIRECTION('center_axis',(0.,1.,0.));
#327=DIRECTION('ref_axis',(0.,0.,-1.));
#328=DIRECTION('center_axis',(0.,1.,0.));
#329=DIRECTION('ref_axis',(0.,0.,-1.));
#330=DIRECTION('center_axis',(0.,-1.,0.));
#331=DIRECTION('ref_axis',(0.,0.,-1.));
#332=DIRECTION('center_axis',(0.,1.,0.));
#333=DIRECTION('ref_axis',(0.,0.,-1.));
#334=DIRECTION('center_axis',(0.,1.,0.));
#335=DIRECTION('ref_axis',(0.,0.,-1.));
#336=DIRECTION('',(0.,1.,0.));
#337=DIRECTION('center_axis',(0.,1.,0.));
#338=DIRECTION('ref_axis',(0.,0.,-1.));
#339=DIRECTION('',(0.,1.,0.));
#340=DIRECTION('center_axis',(0.,1.,0.));
#341=DIRECTION('ref_axis',(0.,0.,-1.));
#342=DIRECTION('center_axis',(0.,-1.,0.));
#343=DIRECTION('ref_axis',(1.,0.,0.));
#344=DIRECTION('center_axis',(0.,-1.,0.));
#345=DIRECTION('ref_axis',(1.,0.,0.));
#346=DIRECTION('center_axis',(0.,-1.,0.));
#347=DIRECTION('ref_axis',(1.,0.,0.));
#348=DIRECTION('center_axis',(0.,-1.,0.));
#349=DIRECTION('ref_axis',(1.,0.,0.));
#350=DIRECTION('center_axis',(0.,-1.,0.));
#351=DIRECTION('ref_axis',(1.,0.,0.));
#352=DIRECTION('',(0.,1.,0.));
#353=DIRECTION('center_axis',(0.,-1.,0.));
#354=DIRECTION('ref_axis',(1.,0.,0.));
#355=DIRECTION('center_axis',(0.,-1.,0.));
#356=DIRECTION('ref_axis',(1.,0.,0.));
#357=DIRECTION('',(0.,1.,0.));
#358=DIRECTION('center_axis',(0.,-1.,0.));
#359=DIRECTION('ref_axis',(1.,0.,0.));
#360=DIRECTION('center_axis',(0.,-1.,0.));
#361=DIRECTION('ref_axis',(1.,0.,0.));
#362=DIRECTION('',(0.,0.,1.));
#363=DIRECTION('',(1.,0.,0.));
#364=DIRECTION('',(0.,0.,1.));
#365=DIRECTION('',(1.,0.,0.));
#366=CARTESIAN_POINT('',(0.,0.,0.));
#367=CARTESIAN_POINT('',(0.,0.,0.));
#368=CARTESIAN_POINT('Origin',(0.,51.0183483808026,0.));
#369=CARTESIAN_POINT('',(4.15124648740974E-16,50.,3.38975));
#370=CARTESIAN_POINT('Origin',(0.,50.,0.));
#371=CARTESIAN_POINT('',(0.,52.0367672833487,0.));
#372=CARTESIAN_POINT('',(2.0756951108107E-16,51.0183483808026,1.69493368394535));
#373=CARTESIAN_POINT('Origin',(0.,36.,0.));
#374=CARTESIAN_POINT('',(-4.15124648740974E-16,22.,3.38975));
#375=CARTESIAN_POINT('Origin',(0.,22.,0.));
#376=CARTESIAN_POINT('',(4.15124648740974E-16,36.,3.38975));
#377=CARTESIAN_POINT('Origin',(0.,6.,0.));
#378=CARTESIAN_POINT('',(21.3389077074672,73.,-2.61326250212504E-15));
#379=CARTESIAN_POINT('Origin',(0.,73.,0.));
#380=CARTESIAN_POINT('',(9.525,6.,-1.16647607618785E-15));
#381=CARTESIAN_POINT('',(9.525,6.,-1.16647607618785E-15));
#382=CARTESIAN_POINT('Origin',(0.,6.,0.));
#383=CARTESIAN_POINT('Origin',(0.,73.,0.));
#384=CARTESIAN_POINT('Origin',(0.,2.,0.));
#385=CARTESIAN_POINT('',(9.525,2.,-1.16647607618785E-15));
#386=CARTESIAN_POINT('Origin',(0.,2.,0.));
#387=CARTESIAN_POINT('',(-5.9944,2.,7.34102277280889E-16));
#388=CARTESIAN_POINT('Origin',(0.,2.,0.));
#389=CARTESIAN_POINT('Origin',(0.,2.,0.));
#390=CARTESIAN_POINT('',(9.525,2.,-1.16647607618785E-15));
#391=CARTESIAN_POINT('Origin',(0.,0.,0.));
#392=CARTESIAN_POINT('',(-5.9944,22.,7.34102277280889E-16));
#393=CARTESIAN_POINT('',(-5.9944,0.,7.34102277280889E-16));
#394=CARTESIAN_POINT('Origin',(0.,22.,0.));
#395=CARTESIAN_POINT('Origin',(0.,22.,0.));
#396=CARTESIAN_POINT('',(0.,0.,0.));
#397=CARTESIAN_POINT('Origin',(3.7130086704747E-16,-14.,0.));
#398=CARTESIAN_POINT('',(1.22855362645062E-15,-14.,7.));
#399=CARTESIAN_POINT('Origin',(3.7130086704747E-16,-14.,0.));
#400=CARTESIAN_POINT('',(-1.43050788594418E-16,-14.,4.2));
#401=CARTESIAN_POINT('Origin',(3.7130086704747E-16,-14.,0.));
#402=CARTESIAN_POINT('Origin',(3.7130086704747E-16,-23.,0.));
#403=CARTESIAN_POINT('',(1.22855362645062E-15,-32.,7.));
#404=CARTESIAN_POINT('Origin',(3.7130086704747E-16,-32.,0.));
#405=CARTESIAN_POINT('',(1.22855362645062E-15,-23.,7.));
#406=CARTESIAN_POINT('Origin',(3.7130086704747E-16,-16.05,0.));
#407=CARTESIAN_POINT('',(8.85652522689359E-16,19.,4.2));
#408=CARTESIAN_POINT('',(8.85652522689359E-16,-16.05,4.2));
#409=CARTESIAN_POINT('Origin',(3.7130086704747E-16,19.,0.));
#410=CARTESIAN_POINT('Origin',(0.,-6.,0.));
#411=CARTESIAN_POINT('',(-9.525,-6.,-1.16647607618785E-15));
#412=CARTESIAN_POINT('Origin',(0.,-6.,0.));
#413=CARTESIAN_POINT('',(-5.9944,-6.,-7.34102277280889E-16));
#414=CARTESIAN_POINT('Origin',(2.33672012328541E-16,-6.,0.));
#415=CARTESIAN_POINT('Origin',(0.,-6.,0.));
#416=CARTESIAN_POINT('',(-9.525,-32.,-1.16647607618785E-15));
#417=CARTESIAN_POINT('Origin',(0.,-32.,0.));
#418=CARTESIAN_POINT('',(-9.525,-6.,-1.16647607618785E-15));
#419=CARTESIAN_POINT('Origin',(0.,-32.,0.));
#420=CARTESIAN_POINT('Origin',(2.33672012328541E-16,-3.,0.));
#421=CARTESIAN_POINT('',(-5.9944,19.,-7.34102277280889E-16));
#422=CARTESIAN_POINT('',(-5.9944,-3.,-7.34102277280889E-16));
#423=CARTESIAN_POINT('Origin',(2.33672012328541E-16,19.,0.));
#424=CARTESIAN_POINT('Origin',(0.,19.,0.));
#425=CARTESIAN_POINT('',(0.,0.,0.));
#426=CARTESIAN_POINT('',(0.,0.,0.));
#427=UNCERTAINTY_MEASURE_WITH_UNIT(LENGTH_MEASURE(0.01),#435,
'DISTANCE_ACCURACY_VALUE',
'Maximum model space distance between geometric entities at asserted c
onnectivities');
#428=UNCERTAINTY_MEASURE_WITH_UNIT(LENGTH_MEASURE(0.01),#435,
'DISTANCE_ACCURACY_VALUE',
'Maximum model space distance between geometric entities at asserted c
onnectivities');
#429=UNCERTAINTY_MEASURE_WITH_UNIT(LENGTH_MEASURE(0.01),#435,
'DISTANCE_ACCURACY_VALUE',
'Maximum model space distance between geometric entities at asserted c
onnectivities');
#430=UNCERTAINTY_MEASURE_WITH_UNIT(LENGTH_MEASURE(0.01),#435,
'DISTANCE_ACCURACY_VALUE',
'Maximum model space distance between geometric entities at asserted c
onnectivities');
#431=(
GEOMETRIC_REPRESENTATION_CONTEXT(3)
GLOBAL_UNCERTAINTY_ASSIGNED_CONTEXT((#427))
GLOBAL_UNIT_ASSIGNED_CONTEXT((#435,#437,#438))
REPRESENTATION_CONTEXT('','3D')
);
#432=(
GEOMETRIC_REPRESENTATION_CONTEXT(3)
GLOBAL_UNCERTAINTY_ASSIGNED_CONTEXT((#428))
GLOBAL_UNIT_ASSIGNED_CONTEXT((#435,#437,#438))
REPRESENTATION_CONTEXT('','3D')
);
#433=(
GEOMETRIC_REPRESENTATION_CONTEXT(3)
GLOBAL_UNCERTAINTY_ASSIGNED_CONTEXT((#429))
GLOBAL_UNIT_ASSIGNED_CONTEXT((#435,#437,#438))
REPRESENTATION_CONTEXT('','3D')
);
#434=(
GEOMETRIC_REPRESENTATION_CONTEXT(3)
GLOBAL_UNCERTAINTY_ASSIGNED_CONTEXT((#430))
GLOBAL_UNIT_ASSIGNED_CONTEXT((#435,#437,#438))
REPRESENTATION_CONTEXT('','3D')
);
#435=(
LENGTH_UNIT()
NAMED_UNIT(*)
SI_UNIT(.MILLI.,.METRE.)
);
#436=(
LENGTH_UNIT()
NAMED_UNIT(*)
SI_UNIT($,.METRE.)
);
#437=(
NAMED_UNIT(*)
PLANE_ANGLE_UNIT()
SI_UNIT($,.RADIAN.)
);
#438=(
NAMED_UNIT(*)
SI_UNIT($,.STERADIAN.)
SOLID_ANGLE_UNIT()
);
#439=SHAPE_DEFINITION_REPRESENTATION(#442,#447);
#440=SHAPE_DEFINITION_REPRESENTATION(#443,#448);
#441=SHAPE_DEFINITION_REPRESENTATION(#444,#449);
#442=PRODUCT_DEFINITION_SHAPE('',$,#451);
#443=PRODUCT_DEFINITION_SHAPE('',$,#452);
#444=PRODUCT_DEFINITION_SHAPE('',$,#453);
#445=PRODUCT_DEFINITION_SHAPE($,$,#17);
#446=PRODUCT_DEFINITION_SHAPE($,$,#18);
#447=SHAPE_REPRESENTATION('',(#249,#283,#284),#431);
#448=SHAPE_REPRESENTATION('',(#250),#432);
#449=SHAPE_REPRESENTATION('',(#266),#433);
#450=PRODUCT_DEFINITION_CONTEXT('part definition',#461,'design');
#451=PRODUCT_DEFINITION('dropuot_aligment_tool_prawy_v2_poprawiony',
'dropuot_aligment_tool_prawy_v2_poprawiony v2',#454,#450);
#452=PRODUCT_DEFINITION('Komponent1','Komponent1',#455,#450);
#453=PRODUCT_DEFINITION('Komponent2','Komponent2',#456,#450);
#454=PRODUCT_DEFINITION_FORMATION('',$,#463);
#455=PRODUCT_DEFINITION_FORMATION('',$,#464);
#456=PRODUCT_DEFINITION_FORMATION('',$,#465);
#457=PRODUCT_RELATED_PRODUCT_CATEGORY(
'dropuot_aligment_tool_prawy_v2_poprawiony v2',
'dropuot_aligment_tool_prawy_v2_poprawiony v2',(#463));
#458=PRODUCT_RELATED_PRODUCT_CATEGORY('Komponent1','Komponent1',(#464));
#459=PRODUCT_RELATED_PRODUCT_CATEGORY('Komponent2','Komponent2',(#465));
#460=APPLICATION_PROTOCOL_DEFINITION('international standard',
'automotive_design',2009,#461);
#461=APPLICATION_CONTEXT(
'Core Data for Automotive Mechanical Design Process');
#462=PRODUCT_CONTEXT('part definition',#461,'mechanical');
#463=PRODUCT('dropuot_aligment_tool_prawy_v2_poprawiony',
'dropuot_aligment_tool_prawy_v2_poprawiony v2',$,(#462));
#464=PRODUCT('Komponent1','Komponent1',$,(#462));
#465=PRODUCT('Komponent2','Komponent2',$,(#462));
#466=PRESENTATION_STYLE_ASSIGNMENT((#467));
#467=SURFACE_STYLE_USAGE(.BOTH.,#468);
#468=SURFACE_SIDE_STYLE('',(#469));
#469=SURFACE_STYLE_FILL_AREA(#470);
#470=FILL_AREA_STYLE('Stal \X2\2014\X0\ satynowa',(#471));
#471=FILL_AREA_STYLE_COLOUR('Stal \X2\2014\X0\ satynowa',#472);
#472=COLOUR_RGB('Stal \X2\2014\X0\ satynowa',0.627450980392157,0.627450980392157,
0.627450980392157);
ENDSEC;
END-ISO-10303-21;
